  0
SECTION
  2
HEADER
  9
$ACADVER
  1
AC1009
  9
$INSBASE
 10
0.0
 20
0.0
 30
0.0
  9
$EXTMIN
 10
-0.0001235145224001
 20
-0.0000000000000053
 30
0.0
  9
$EXTMAX
 10
1102.9422117700001
 20
666.14261292103163
 30
0.0
  9
$LIMMIN
 10
0.0
 20
0.0
  9
$LIMMAX
 10
12.0
 20
9.0
  9
$ORTHOMODE
 70
     0
  9
$REGENMODE
 70
     1
  9
$FILLMODE
 70
     1
  9
$QTEXTMODE
 70
     0
  9
$MIRRTEXT
 70
     0
  9
$DRAGMODE
 70
     2
  9
$LTSCALE
 40
1.0
  9
$OSMODE
 70
   167
  9
$ATTMODE
 70
     1
  9
$TEXTSIZE
 40
0.2
  9
$TRACEWID
 40
0.05
  9
$TEXTSTYLE
  7
STANDARD
  9
$CLAYER
  8
0
  9
$CELTYPE
  6
CONTINUOUS
  9
$CECOLOR
 62
   256
  9
$DIMSCALE
 40
1.0
  9
$DIMASZ
 40
0.18
  9
$DIMEXO
 40
0.0625
  9
$DIMDLI
 40
0.38
  9
$DIMRND
 40
0.0
  9
$DIMDLE
 40
0.0
  9
$DIMEXE
 40
0.18
  9
$DIMTP
 40
0.0
  9
$DIMTM
 40
0.0
  9
$DIMTXT
 40
0.18
  9
$DIMCEN
 40
0.09
  9
$DIMTSZ
 40
0.0
  9
$DIMTOL
 70
     0
  9
$DIMLIM
 70
     0
  9
$DIMTIH
 70
     1
  9
$DIMTOH
 70
     1
  9
$DIMSE1
 70
     0
  9
$DIMSE2
 70
     0
  9
$DIMTAD
 70
     0
  9
$DIMZIN
 70
     0
  9
$DIMBLK
  1

  9
$DIMASO
 70
     1
  9
$DIMSHO
 70
     1
  9
$DIMPOST
  1

  9
$DIMAPOST
  1

  9
$DIMALT
 70
     0
  9
$DIMALTD
 70
     2
  9
$DIMALTF
 40
25.399999999999999
  9
$DIMLFAC
 40
1.0
  9
$DIMTOFL
 70
     0
  9
$DIMTVP
 40
0.0
  9
$DIMTIX
 70
     0
  9
$DIMSOXD
 70
     0
  9
$DIMSAH
 70
     0
  9
$DIMBLK1
  1

  9
$DIMBLK2
  1

  9
$DIMSTYLE
  2
STANDARD
  9
$DIMCLRD
 70
     0
  9
$DIMCLRE
 70
     0
  9
$DIMCLRT
 70
     0
  9
$DIMTFAC
 40
1.0
  9
$DIMGAP
 40
0.09
  9
$LUNITS
 70
     2
  9
$LUPREC
 70
     4
  9
$SKETCHINC
 40
0.1
  9
$FILLETRAD
 40
0.0
  9
$AUNITS
 70
     0
  9
$AUPREC
 70
     0
  9
$MENU
  1
.
  9
$ELEVATION
 40
0.0
  9
$PELEVATION
 40
0.0
  9
$THICKNESS
 40
0.0
  9
$LIMCHECK
 70
     0
  9
$BLIPMODE
 70
     0
  9
$CHAMFERA
 40
0.0
  9
$CHAMFERB
 40
0.0
  9
$SKPOLY
 70
     0
  9
$TDCREATE
 40
2455328.7710729521
  9
$TDUPDATE
 40
2455328.771802118
  9
$TDINDWG
 40
0.000375081
  9
$TDUSRTIMER
 40
0.0003743519
  9
$USRTIMER
 70
     1
  9
$ANGBASE
 50
0.0
  9
$ANGDIR
 70
     0
  9
$PDMODE
 70
     0
  9
$PDSIZE
 40
0.0
  9
$PLINEWID
 40
0.0
  9
$COORDS
 70
     1
  9
$SPLFRAME
 70
     0
  9
$SPLINETYPE
 70
     6
  9
$SPLINESEGS
 70
     8
  9
$ATTDIA
 70
     0
  9
$ATTREQ
 70
     1
  9
$HANDLING
 70
     1
  9
$HANDSEED
  5
2185
  9
$SURFTAB1
 70
     6
  9
$SURFTAB2
 70
     6
  9
$SURFTYPE
 70
     6
  9
$SURFU
 70
     6
  9
$SURFV
 70
     6
  9
$UCSNAME
  2

  9
$UCSORG
 10
0.0
 20
0.0
 30
0.0
  9
$UCSXDIR
 10
1.0
 20
0.0
 30
0.0
  9
$UCSYDIR
 10
0.0
 20
1.0
 30
0.0
  9
$PUCSNAME
  2

  9
$PUCSORG
 10
0.0
 20
0.0
 30
0.0
  9
$PUCSXDIR
 10
1.0
 20
0.0
 30
0.0
  9
$PUCSYDIR
 10
0.0
 20
1.0
 30
0.0
  9
$USERI1
 70
     0
  9
$USERI2
 70
     0
  9
$USERI3
 70
     0
  9
$USERI4
 70
     0
  9
$USERI5
 70
     0
  9
$USERR1
 40
0.0
  9
$USERR2
 40
0.0
  9
$USERR3
 40
0.0
  9
$USERR4
 40
0.0
  9
$USERR5
 40
0.0
  9
$WORLDVIEW
 70
     1
  9
$SHADEDGE
 70
     3
  9
$SHADEDIF
 70
    70
  9
$TILEMODE
 70
     1
  9
$MAXACTVP
 70
    64
  9
$PLIMCHECK
 70
     0
  9
$PEXTMIN
 10
1.0000000000000000E+020
 20
1.0000000000000000E+020
 30
1.0000000000000000E+020
  9
$PEXTMAX
 10
-1.0000000000000000E+020
 20
-1.0000000000000000E+020
 30
-1.0000000000000000E+020
  9
$PLIMMIN
 10
0.0
 20
0.0
  9
$PLIMMAX
 10
12.0
 20
9.0
  9
$UNITMODE
 70
     0
  9
$VISRETAIN
 70
     1
  9
$PLINEGEN
 70
     0
  9
$PSLTSCALE
 70
     1
  0
ENDSEC
  0
SECTION
  2
TABLES
  0
TABLE
  2
VPORT
 70
     1
  0
VPORT
  2
*ACTIVE
 70
     0
 10
0.0
 20
0.0
 11
1.0
 21
1.0
 12
7.8038793103448301
 22
4.5
 13
0.0
 23
0.0
 14
1.0
 24
1.0
 15
0.0
 25
0.0
 16
0.0
 26
0.0
 36
1.0
 17
0.0
 27
0.0
 37
0.0
 40
9.0
 41
1.7341954022988499
 42
50.0
 43
0.0
 44
0.0
 50
0.0
 51
0.0
 71
     0
 72
   100
 73
     1
 74
     1
 75
     0
 76
     0
 77
     0
 78
     0
  0
ENDTAB
  0
TABLE
  2
LTYPE
 70
     1
  0
LTYPE
  2
CONTINUOUS
 70
     0
  3
Solid line
 72
    65
 73
     0
 40
0.0
  0
ENDTAB
  0
TABLE
  2
LAYER
 70
     3
  0
LAYER
  2
0
 70
     0
 62
     7
  6
CONTINUOUS
  0
LAYER
  2
WHITE
 70
     0
 62
     1
  6
CONTINUOUS
  0
LAYER
  2
DEFAULT_LAYER
 70
     0
 62
     1
  6
CONTINUOUS
  0
ENDTAB
  0
TABLE
  2
STYLE
 70
     2
  0
STYLE
  2
STANDARD
 70
     0
 40
0.0
 41
1.0
 50
0.0
 71
     0
 42
0.2
  3
txt
  4

  0
STYLE
  2
ANNOTATIVE
 70
     0
 40
0.0
 41
1.0
 50
0.0
 71
     0
 42
0.2
  3
txt
  4

  0
ENDTAB
  0
TABLE
  2
VIEW
 70
     0
  0
ENDTAB
  0
TABLE
  2
UCS
 70
     0
  0
ENDTAB
  0
TABLE
  2
APPID
 70
     3
  0
APPID
  2
ACAD
 70
     0
  0
APPID
  2
ACADANNOTATIVE
 70
     0
  0
APPID
  2
ACAD_MLEADERVER
 70
     0
  0
ENDTAB
  0
TABLE
  2
DIMSTYLE
 70
     2
  0
DIMSTYLE
  2
STANDARD
 70
     0
  3

  4

  5

  6

  7

 40
1.0
 41
0.18
 42
0.0625
 43
0.38
 44
0.18
 45
0.0
 46
0.0
 47
0.0
 48
0.0
140
0.18
141
0.09
142
0.0
143
25.399999999999999
144
1.0
145
0.0
146
1.0
147
0.09
 71
     0
 72
     0
 73
     1
 74
     1
 75
     0
 76
     0
 77
     0
 78
     0
170
     0
171
     2
172
     0
173
     0
174
     0
175
     0
176
     0
177
     0
178
     0
  0
DIMSTYLE
  2
ANNOTATIVE
 70
     0
  3

  4

  5

  6

  7

 40
1.0
 41
0.18
 42
0.0625
 43
0.38
 44
0.18
 45
0.0
 46
0.0
 47
0.0
 48
0.0
140
0.18
141
0.09
142
0.0
143
25.399999999999999
144
1.0
145
0.0
146
1.0
147
0.09
 71
     0
 72
     0
 73
     1
 74
     1
 75
     0
 76
     0
 77
     0
 78
     0
170
     0
171
     2
172
     0
173
     0
174
     0
175
     0
176
     0
177
     0
178
     0
  0
ENDTAB
  0
ENDSEC
  0
SECTION
  2
BLOCKS
  0
BLOCK
  8
0
  2
$MODEL_SPACE
 70
     0
 10
0.0
 20
0.0
 30
0.0
  3
$MODEL_SPACE
  1

  0
ENDBLK
  5
16AD
  8
0
  0
BLOCK
 67
     1
  8
0
  2
$PAPER_SPACE
 70
     0
 10
0.0
 20
0.0
 30
0.0
  3
$PAPER_SPACE
  1

  0
ENDBLK
  5
16A9
 67
     1
  8
0
  0
ENDSEC
  0
SECTION
  2
ENTITIES
  0
POLYLINE
  5
7C
  8
WHITE
 66
     1
 10
0.0
 20
0.0
 30
0.0
 70
     1
  0
VERTEX
  5
16C9
  8
WHITE
 10
34.7466739125
 20
24.453027975000001
 30
0.0
 42
0.15627193
  0
VERTEX
  5
16CA
  8
WHITE
 10
30.627682835000002
 20
22.97520729
 30
0.0
  0
VERTEX
  5
16CB
  8
WHITE
 10
27.38156167
 20
21.685801304999998
 30
0.0
 42
-0.24854882
  0
VERTEX
  5
16CC
  8
WHITE
 10
26.57710054
 20
21.773935837500002
 30
0.0
 42
-0.24854882
  0
VERTEX
  5
16CD
  8
WHITE
 10
26.198218072500001
 20
22.489039665
 30
0.0
  0
VERTEX
  5
16CE
  8
WHITE
 10
26.198218072500001
 20
31.698807734999999
 30
0.0
 42
0.41421356
  0
VERTEX
  5
16CF
  8
WHITE
 10
26.025360930000002
 20
31.871664877499999
 30
0.0
  0
VERTEX
  5
16D0
  8
WHITE
 10
24.858575214999998
 20
31.871664877499999
 30
0.0
 42
0.41421356
  0
VERTEX
  5
16D1
  8
WHITE
 10
24.685718072499998
 20
31.698807734999999
 30
0.0
  0
VERTEX
  5
16D2
  8
WHITE
 10
24.685718072499998
 20
22.3688814775
 30
0.0
 42
-0.24854887
  0
VERTEX
  5
16D3
  8
WHITE
 10
24.30683548
 20
21.653777567500001
 30
0.0
 42
-0.24854887
  0
VERTEX
  5
16D4
  8
WHITE
 10
23.5023743725
 20
21.565642857499999
 30
0.0
  0
VERTEX
  5
16D5
  8
WHITE
 10
19.953752922500001
 20
22.975207292499991
 30
0.0
 42
0.2104586
  0
VERTEX
  5
16D6
  8
WHITE
 10
14.3376617475
 20
24.347479185000001
 30
0.0
 42
0.2104586
  0
VERTEX
  5
16D7
  8
WHITE
 10
9.5339715199999997
 20
21.130620719999989
 30
0.0
 42
0.23593085
  0
VERTEX
  5
16D8
  8
WHITE
 10
6.3849313299999988
 20
2.3810171324999989
 30
0.0
 42
-0.41421356
  0
VERTEX
  5
16D9
  8
WHITE
 10
4.0039139475000001
 20
0.0
 30
0.0
 42
-0.41421356
  0
VERTEX
  5
16DA
  8
WHITE
 10
1.622896869999999
 20
2.381017402499999
 30
0.0
 42
-0.18950537
  0
VERTEX
  5
16DB
  8
WHITE
 10
4.3468943675
 20
32.086030985000001
 30
0.0
 42
-0.35920074
  0
VERTEX
  5
16DC
  8
WHITE
 10
6.2592322825000002
 20
32.928781094999998
 30
0.0
 42
0.27424327
  0
VERTEX
  5
16DD
  8
WHITE
 10
17.206412539999999
 20
35.849352439999997
 30
0.0
 42
0.27424327
  0
VERTEX
  5
16DE
  8
WHITE
 10
19.893336022500002
 20
46.856210862500014
 30
0.0
 42
-0.23766538
  0
VERTEX
  5
16DF
  8
WHITE
 10
19.959422012499999
 20
47.2394111475
 30
0.0
 42
-0.23766538
  0
VERTEX
  5
16E0
  8
WHITE
 10
20.306698687499988
 20
47.414364657500002
 30
0.0
  0
VERTEX
  5
16E1
  8
WHITE
 10
30.274737457499999
 20
47.414364657500002
 30
0.0
 42
-0.23766538
  0
VERTEX
  5
16E2
  8
WHITE
 10
30.622014132499991
 20
47.2394111475
 30
0.0
 42
-0.23766538
  0
VERTEX
  5
16E3
  8
WHITE
 10
30.6880999125
 20
46.85621092249999
 30
0.0
 42
0.27424327
  0
VERTEX
  5
16E4
  8
WHITE
 10
33.375023605000003
 20
35.849352439999997
 30
0.0
 42
0.27424327
  0
VERTEX
  5
16E5
  8
WHITE
 10
44.322204267499977
 20
32.928779665
 30
0.0
 42
-0.35920068
  0
VERTEX
  5
16E6
  8
WHITE
 10
46.234540334999991
 20
32.086030684999997
 30
0.0
 42
-0.18950537
  0
VERTEX
  5
16E7
  8
WHITE
 10
48.958537600000007
 20
2.3810173825000001
 30
0.0
 42
-0.41421356
  0
VERTEX
  5
16E8
  8
WHITE
 10
46.577520467500001
 20
0.0
 30
0.0
 42
-0.41421356
  0
VERTEX
  5
16E9
  8
WHITE
 10
44.196503087499991
 20
2.3810171324999989
 30
0.0
 42
0.23593085
  0
VERTEX
  5
16EA
  8
WHITE
 10
41.047463980000003
 20
21.13062042
 30
0.0
 42
0.24019602
  0
VERTEX
  5
16EB
  8
WHITE
 10
35.438102569999998
 20
24.443494082499999
 30
0.0
  0
VERTEX
  5
16EC
  8
WHITE
 10
35.265369342500001
 20
24.452130745000002
 30
0.0
  0
VERTEX
  5
16ED
  8
WHITE
 10
35.092503215000001
 20
24.456599307499999
 30
0.0
  0
VERTEX
  5
16EE
  8
WHITE
 10
34.919579597499997
 20
24.456898729999999
 30
0.0
  0
VERTEX
  5
16EF
  8
WHITE
 10
34.7466739125
 20
24.453027975000001
 30
0.0
  0
SEQEND
  5
16F0
  8
WHITE
  0
POLYLINE
  5
A5
  8
WHITE
 66
     1
 10
0.0
 20
0.0
 30
0.0
 70
     1
  0
VERTEX
  5
16F1
  8
WHITE
 10
26.300779665
 20
238.1823762825
 30
0.0
 42
0.26495469
  0
VERTEX
  5
16F2
  8
WHITE
 10
20.322272367499991
 20
216.0251989649999
 30
0.0
 42
-0.12983323
  0
VERTEX
  5
16F3
  8
WHITE
 10
20.320612664999992
 20
215.5837906125
 30
0.0
 42
-0.41960951
  0
VERTEX
  5
16F4
  8
WHITE
 10
11.198174865
 20
210.43040063000001
 30
0.0
 42
-0.35146003
  0
VERTEX
  5
16F5
  8
WHITE
 10
10.0723981375
 20
211.7057154149999
 30
0.0
 42
-0.35146003
  0
VERTEX
  5
16F6
  8
WHITE
 10
11.072815435000001
 20
213.081566525
 30
0.0
 42
0.21289362
  0
VERTEX
  5
16F7
  8
WHITE
 10
13.680839537500001
 20
220.78579106500001
 30
0.0
 42
0.25049293
  0
VERTEX
  5
16F8
  8
WHITE
 10
1.6303891450000001
 20
244.65218916750001
 30
0.0
 42
-0.38845421
  0
VERTEX
  5
16F9
  8
WHITE
 10
1.5045311574999991
 20
245.2218855575
 30
0.0
  0
VERTEX
  5
16FA
  8
WHITE
 10
4.198422384999998
 20
249.8878409175
 30
0.0
 42
-0.41421356
  0
VERTEX
  5
16FB
  8
WHITE
 10
4.434549614999999
 20
249.95111092249999
 30
0.0
  0
VERTEX
  5
16FC
  8
WHITE
 10
12.94644929
 20
245.03676328499989
 30
0.0
 42
0.4142134900000001
  0
VERTEX
  5
16FD
  8
WHITE
 10
13.1825765
 20
245.10003337250001
 30
0.0
  0
VERTEX
  5
16FE
  8
WHITE
 10
13.7659693575
 20
246.11050005000001
 30
0.0
 42
0.4142136200000002
  0
VERTEX
  5
16FF
  8
WHITE
 10
13.702699322499999
 20
246.34662722749999
 30
0.0
  0
VERTEX
  5
1700
  8
WHITE
 10
5.1907996150000004
 20
251.26097474499991
 30
0.0
 42
-0.41421342
  0
VERTEX
  5
1701
  8
WHITE
 10
5.12752958
 20
251.49710199249989
 30
0.0
  0
VERTEX
  5
1702
  8
WHITE
 10
7.9568219950000003
 20
256.39758151249998
 30
0.0
 42
-0.40153162
  0
VERTEX
  5
1703
  8
WHITE
 10
8.5306642425000003
 20
256.564796925
 30
0.0
 42
0.09755598
  0
VERTEX
  5
1704
  8
WHITE
 10
22.101158072499999
 20
252.57998443
 30
0.0
 42
0.08650108
  0
VERTEX
  5
1705
  8
WHITE
 10
55.1882757825
 20
258.89663638000002
 30
0.0
 42
0.15949013
  0
VERTEX
  5
1706
  8
WHITE
 10
58.381638119999998
 20
261.28911754249998
 30
0.0
 42
-0.28836966
  0
VERTEX
  5
1707
  8
WHITE
 10
59.230166762499998
 20
261.64567362999998
 30
0.0
 42
-0.21076198
  0
VERTEX
  5
1708
  8
WHITE
 10
61.564271849999997
 20
260.11928353000002
 30
0.0
 42
-0.21076198
  0
VERTEX
  5
1709
  8
WHITE
 10
62.010688444999992
 20
257.36635324000002
 30
0.0
 42
-0.09389412
  0
VERTEX
  5
170A
  8
WHITE
 10
58.132690862499999
 20
247.68467181
 30
0.0
 42
-0.28247927
  0
VERTEX
  5
170B
  8
WHITE
 10
57.319096117500003
 20
247.289688775
 30
0.0
 42
0.19035863
  0
VERTEX
  5
170C
  8
WHITE
 10
26.846231825
 20
238.60728122500001
 30
0.0
  0
VERTEX
  5
170D
  8
WHITE
 10
26.706532387500001
 20
238.50464782750001
 30
0.0
  0
VERTEX
  5
170E
  8
WHITE
 10
26.565527732500001
 20
238.4033678575
 30
0.0
  0
VERTEX
  5
170F
  8
WHITE
 10
26.428512085000001
 20
238.29781833499999
 30
0.0
  0
VERTEX
  5
1710
  8
WHITE
 10
26.363154582500002
 20
238.24168531000001
 30
0.0
  0
VERTEX
  5
1711
  8
WHITE
 10
26.300779665
 20
238.1823762825
 30
0.0
  0
SEQEND
  5
1712
  8
WHITE
  0
POLYLINE
  5
C8
  8
WHITE
 66
     1
 10
0.0
 20
0.0
 30
0.0
 70
     1
  0
VERTEX
  5
1713
  8
WHITE
 10
34.229981600000009
 20
53.145153452499997
 30
0.0
 42
-0.04968492
  0
VERTEX
  5
1714
  8
WHITE
 10
25.979253365000002
 20
52.08252074
 30
0.0
 42
-0.20265735
  0
VERTEX
  5
1715
  8
WHITE
 10
25.665670315
 20
52.204545052500002
 30
0.0
 42
-0.20265735
  0
VERTEX
  5
1716
  8
WHITE
 10
25.5346670375
 20
52.514484407499992
 30
0.0
  0
VERTEX
  5
1717
  8
WHITE
 10
25.5346670375
 20
59.677784664999997
 30
0.0
 42
0.41421356
  0
VERTEX
  5
1718
  8
WHITE
 10
25.361809895
 20
59.850641807499997
 30
0.0
  0
VERTEX
  5
1719
  8
WHITE
 10
24.195024180000001
 20
59.850641807499997
 30
0.0
 42
0.41421356
  0
VERTEX
  5
171A
  8
WHITE
 10
24.022167037500001
 20
59.677784664999997
 30
0.0
  0
VERTEX
  5
171B
  8
WHITE
 10
24.022167037500001
 20
52.506872642499999
 30
0.0
 42
-0.20170938
  0
VERTEX
  5
171C
  8
WHITE
 10
23.892290845000002
 20
52.19803237499999
 30
0.0
 42
-0.20170938
  0
VERTEX
  5
171D
  8
WHITE
 10
23.580728427499992
 20
52.0748302975
 30
0.0
 42
-0.06979728
  0
VERTEX
  5
171E
  8
WHITE
 10
12.072884757500001
 20
53.9423693775
 30
0.0
 42
0.39205261
  0
VERTEX
  5
171F
  8
WHITE
 10
7.83540904
 20
51.910972164999997
 30
0.0
 42
0.16258273
  0
VERTEX
  5
1720
  8
WHITE
 10
6.9312228024999989
 20
35.231183479999999
 30
0.0
 42
-0.31684491
  0
VERTEX
  5
1721
  8
WHITE
 10
6.8638010925000001
 20
35.043858630000003
 30
0.0
 42
-0.31684491
  0
VERTEX
  5
1722
  8
WHITE
 10
6.6647125899999988
 20
35.04426599
 30
0.0
 42
-0.37039815
  0
VERTEX
  5
1723
  8
WHITE
 10
1.7211792999999991
 20
41.028564122500001
 30
0.0
 42
-0.11553566
  0
VERTEX
  5
1724
  8
WHITE
 10
5.1883291700000003
 20
58.667718045000001
 30
0.0
 42
-0.39616135
  0
VERTEX
  5
1725
  8
WHITE
 10
6.2822062650000001
 20
59.120271854999999
 30
0.0
 42
0.29209503
  0
VERTEX
  5
1726
  8
WHITE
 10
16.455535680000001
 20
61.248949652500002
 30
0.0
 42
0.29209503
  0
VERTEX
  5
1727
  8
WHITE
 10
18.802539060000001
 20
71.374139742500006
 30
0.0
 42
-0.24357737
  0
VERTEX
  5
1728
  8
WHITE
 10
18.856918472499999
 20
71.767861795000002
 30
0.0
 42
-0.24357737
  0
VERTEX
  5
1729
  8
WHITE
 10
19.2098570225
 20
71.950641807500006
 30
0.0
  0
VERTEX
  5
172A
  8
WHITE
 10
30.044476187499988
 20
71.950641807500006
 30
0.0
 42
-0.24357737
  0
VERTEX
  5
172B
  8
WHITE
 10
30.3974147375
 20
71.767861795000002
 30
0.0
 42
-0.24357737
  0
VERTEX
  5
172C
  8
WHITE
 10
30.45179409
 20
71.374139760000006
 30
0.0
 42
0.29209503
  0
VERTEX
  5
172D
  8
WHITE
 10
32.798797530000002
 20
61.248949652500002
 30
0.0
 42
0.29209503
  0
VERTEX
  5
172E
  8
WHITE
 10
42.972126899999999
 20
59.120271959999997
 30
0.0
 42
-0.39616162
  0
VERTEX
  5
172F
  8
WHITE
 10
44.066005619999991
 20
58.667718377500002
 30
0.0
 42
-0.11553566
  0
VERTEX
  5
1730
  8
WHITE
 10
47.533154812500001
 20
41.02856414
 30
0.0
 42
-0.37039815
  0
VERTEX
  5
1731
  8
WHITE
 10
42.589620934999999
 20
35.044264900000002
 30
0.0
 42
-0.31684417
  0
VERTEX
  5
1732
  8
WHITE
 10
42.390532784999991
 20
35.043858767499998
 30
0.0
 42
-0.31684417
  0
VERTEX
  5
1733
  8
WHITE
 10
42.323110404999987
 20
35.231183479999999
 30
0.0
 42
0.16258273
  0
VERTEX
  5
1734
  8
WHITE
 10
41.418923817499987
 20
51.910972184999999
 30
0.0
 42
0.39205261
  0
VERTEX
  5
1735
  8
WHITE
 10
37.181448410000002
 20
53.942369329999998
 30
0.0
 42
-0.01398274
  0
VERTEX
  5
1736
  8
WHITE
 10
34.921409852499998
 20
53.31131870250001
 30
0.0
  0
VERTEX
  5
1737
  8
WHITE
 10
34.229981600000009
 20
53.145153452499997
 30
0.0
  0
SEQEND
  5
1738
  8
WHITE
  0
POLYLINE
  5
EF
  8
WHITE
 66
     1
 10
0.0
 20
0.0
 30
0.0
 70
     1
  0
VERTEX
  5
1739
  8
WHITE
 10
34.004002569999997
 20
78.362171457499997
 30
0.0
 42
-0.04774206
  0
VERTEX
  5
173A
  8
WHITE
 10
26.1627940025
 20
77.382799562499997
 30
0.0
 42
-0.20266354
  0
VERTEX
  5
173B
  8
WHITE
 10
26.0373555125
 20
77.431606185000007
 30
0.0
 42
-0.20266354
  0
VERTEX
  5
173C
  8
WHITE
 10
25.984951250000002
 20
77.555584792499999
 30
0.0
  0
VERTEX
  5
173D
  8
WHITE
 10
25.984951250000002
 20
84.128012665
 30
0.0
 42
0.41421342
  0
VERTEX
  5
173E
  8
WHITE
 10
25.812094107499998
 20
84.300869807500007
 30
0.0
  0
VERTEX
  5
173F
  8
WHITE
 10
24.645308395000001
 20
84.300869807500007
 30
0.0
 42
0.4142135500000001
  0
VERTEX
  5
1740
  8
WHITE
 10
24.472451249999999
 20
84.128012665
 30
0.0
  0
VERTEX
  5
1741
  8
WHITE
 10
24.472452114999999
 20
77.565422957500004
 30
0.0
 42
-0.20361716
  0
VERTEX
  5
1742
  8
WHITE
 10
24.4195926075
 20
77.441003302499993
 30
0.0
 42
-0.20361716
  0
VERTEX
  5
1743
  8
WHITE
 10
24.293342687500001
 20
77.392678399999994
 30
0.0
 42
-0.06416246
  0
VERTEX
  5
1744
  8
WHITE
 10
13.835580815
 20
79.126764517500007
 30
0.0
 42
0.27647108
  0
VERTEX
  5
1745
  8
WHITE
 10
10.39164965
 20
78.258402107500004
 30
0.0
 42
0.3967854499999999
  0
VERTEX
  5
1746
  8
WHITE
 10
10.114115802500001
 20
68.648159555000007
 30
0.0
 42
-0.33406045
  0
VERTEX
  5
1747
  8
WHITE
 10
9.3643982974999993
 20
67.367085744999983
 30
0.0
 42
-0.33406045
  0
VERTEX
  5
1748
  8
WHITE
 10
7.9255953300000002
 20
67.731879919999997
 30
0.0
 42
-0.36802766
  0
VERTEX
  5
1749
  8
WHITE
 10
7.7208681825000003
 20
84.150743982500003
 30
0.0
 42
-0.29165933
  0
VERTEX
  5
174A
  8
WHITE
 10
9.0481447075000005
 20
84.576496277499984
 30
0.0
 42
0.24639761
  0
VERTEX
  5
174B
  8
WHITE
 10
17.175924367499999
 20
86.445291065000006
 30
0.0
 42
0.24639761
  0
VERTEX
  5
174C
  8
WHITE
 10
20.2573866675
 20
94.194986610000001
 30
0.0
 42
-0.21255586
  0
VERTEX
  5
174D
  8
WHITE
 10
20.366018494999999
 20
94.529316399999999
 30
0.0
 42
-0.21255586
  0
VERTEX
  5
174E
  8
WHITE
 10
20.687162444999998
 20
94.672298377499999
 30
0.0
  0
VERTEX
  5
174F
  8
WHITE
 10
30.072740079999988
 20
94.672298377499999
 30
0.0
 42
-0.21255585
  0
VERTEX
  5
1750
  8
WHITE
 10
30.393884015000001
 20
94.529316390000005
 30
0.0
 42
-0.21255585
  0
VERTEX
  5
1751
  8
WHITE
 10
30.502515464999998
 20
94.194986652500006
 30
0.0
 42
0.24639761
  0
VERTEX
  5
1752
  8
WHITE
 10
33.583978135000002
 20
86.445291065000006
 30
0.0
 42
0.24639761
  0
VERTEX
  5
1753
  8
WHITE
 10
41.711757717499992
 20
84.576496544999998
 30
0.0
 42
-0.29165916
  0
VERTEX
  5
1754
  8
WHITE
 10
43.039034117500002
 20
84.150744544999995
 30
0.0
 42
-0.36802765
  0
VERTEX
  5
1755
  8
WHITE
 10
42.834306810000001
 20
67.731879794999998
 30
0.0
 42
-0.33406041
  0
VERTEX
  5
1756
  8
WHITE
 10
41.395503712500002
 20
67.367085015000001
 30
0.0
 42
-0.33406041
  0
VERTEX
  5
1757
  8
WHITE
 10
40.645785715000002
 20
68.648159762500001
 30
0.0
 42
0.39678543
  0
VERTEX
  5
1758
  8
WHITE
 10
40.36825215999999
 20
78.258401934999995
 30
0.0
 42
0.27647105
  0
VERTEX
  5
1759
  8
WHITE
 10
36.92432168749999
 20
79.126764517500007
 30
0.0
 42
-0.01403236
  0
VERTEX
  5
175A
  8
WHITE
 10
34.677774360000001
 20
78.518515304999994
 30
0.0
  0
VERTEX
  5
175B
  8
WHITE
 10
34.004002569999997
 20
78.362171457499997
 30
0.0
  0
SEQEND
  5
175C
  8
WHITE
  0
POLYLINE
  5
114
  8
WHITE
 66
     1
 10
0.0
 20
0.0
 30
0.0
 70
     1
  0
VERTEX
  5
175D
  8
WHITE
 10
26.3403290125
 20
192.7645362275
 30
0.0
 42
0.1941832
  0
VERTEX
  5
175E
  8
WHITE
 10
20.6763259425
 20
193.43917250000001
 30
0.0
 42
-0.23359455
  0
VERTEX
  5
175F
  8
WHITE
 10
20.526039752500001
 20
193.46868706000001
 30
0.0
 42
-0.23359455
  0
VERTEX
  5
1760
  8
WHITE
 10
20.458188957499999
 20
193.60599422749999
 30
0.0
  0
VERTEX
  5
1761
  8
WHITE
 10
20.458188957499999
 20
197.37202242750001
 30
0.0
 42
0.41421354
  0
VERTEX
  5
1762
  8
WHITE
 10
20.285331814999999
 20
197.54487957250001
 30
0.0
  0
VERTEX
  5
1763
  8
WHITE
 10
19.1185461
 20
197.54487957250001
 30
0.0
 42
0.4142135500000001
  0
VERTEX
  5
1764
  8
WHITE
 10
18.9456889575
 20
197.37202242750001
 30
0.0
  0
VERTEX
  5
1765
  8
WHITE
 10
18.9456889575
 20
193.68163731749999
 30
0.0
 42
-0.22832615
  0
VERTEX
  5
1766
  8
WHITE
 10
18.880563949999999
 20
193.546458315
 30
0.0
 42
-0.22832615
  0
VERTEX
  5
1767
  8
WHITE
 10
18.734261392499999
 20
193.5131379325
 30
0.0
 42
0.23377431
  0
VERTEX
  5
1768
  8
WHITE
 10
12.162140194999999
 20
191.94467908749999
 30
0.0
 42
0.23377431
  0
VERTEX
  5
1769
  8
WHITE
 10
9.4198393649999996
 20
185.76951692
 30
0.0
 42
-0.28964557
  0
VERTEX
  5
176A
  8
WHITE
 10
9.3276332624999991
 20
185.60940035499999
 30
0.0
 42
-0.28964557
  0
VERTEX
  5
176B
  8
WHITE
 10
9.1434468950000003
 20
185.624057155
 30
0.0
 42
-0.20763556
  0
VERTEX
  5
176C
  8
WHITE
 10
5.6818680400000003
 20
191.69696862000001
 30
0.0
 42
-0.20763556
  0
VERTEX
  5
176D
  8
WHITE
 10
7.7531881099999991
 20
198.37322617999999
 30
0.0
 42
0.38778448
  0
VERTEX
  5
176E
  8
WHITE
 10
15.9871982625
 20
207.03362816249989
 30
0.0
 42
-0.40827972
  0
VERTEX
  5
176F
  8
WHITE
 10
16.8513068725
 20
207.88036854999999
 30
0.0
  0
VERTEX
  5
1770
  8
WHITE
 10
22.855071089999999
 20
207.88036854999999
 30
0.0
 42
-0.40827972
  0
VERTEX
  5
1771
  8
WHITE
 10
23.719178652499991
 20
207.0336281649999
 30
0.0
 42
0.38778448
  0
VERTEX
  5
1772
  8
WHITE
 10
31.953188285
 20
198.373225615
 30
0.0
 42
-0.20763556
  0
VERTEX
  5
1773
  8
WHITE
 10
34.024508152499997
 20
191.6969687125
 30
0.0
 42
-0.20763556
  0
VERTEX
  5
1774
  8
WHITE
 10
30.562929152500001
 20
185.62405849749999
 30
0.0
 42
-0.2896456
  0
VERTEX
  5
1775
  8
WHITE
 10
30.378744175000001
 20
185.60940112750001
 30
0.0
 42
-0.2896456
  0
VERTEX
  5
1776
  8
WHITE
 10
30.286538305000001
 20
185.76951693000001
 30
0.0
 42
0.26038212
  0
VERTEX
  5
1777
  8
WHITE
 10
26.932964012500001
 20
192.40305670999999
 30
0.0
  0
VERTEX
  5
1778
  8
WHITE
 10
26.787922734999999
 20
192.49847271249999
 30
0.0
  0
VERTEX
  5
1779
  8
WHITE
 10
26.640764685000001
 20
192.5905480925
 30
0.0
  0
VERTEX
  5
177A
  8
WHITE
 10
26.491547547500002
 20
192.67924765999999
 30
0.0
  0
VERTEX
  5
177B
  8
WHITE
 10
26.3403290125
 20
192.7645362275
 30
0.0
  0
SEQEND
  5
177C
  8
WHITE
  0
POLYLINE
  5
135
  8
WHITE
 66
     1
 10
0.0
 20
0.0
 30
0.0
 70
     1
  0
VERTEX
  5
177D
  8
WHITE
 10
25.08581671
 20
147.22625739750001
 30
0.0
 42
0.06894522
  0
VERTEX
  5
177E
  8
WHITE
 10
21.960106982500001
 20
148.73257896999999
 30
0.0
 42
-0.32568209
  0
VERTEX
  5
177F
  8
WHITE
 10
21.840212064999999
 20
148.89712256499999
 30
0.0
  0
VERTEX
  5
1780
  8
WHITE
 10
21.840212064999999
 20
153.25298082250001
 30
0.0
 42
0.41421354
  0
VERTEX
  5
1781
  8
WHITE
 10
21.667354934999999
 20
153.425837965
 30
0.0
  0
VERTEX
  5
1782
  8
WHITE
 10
20.5005692075
 20
153.425837965
 30
0.0
 42
0.41421356
  0
VERTEX
  5
1783
  8
WHITE
 10
20.327712065
 20
153.25298082250001
 30
0.0
  0
VERTEX
  5
1784
  8
WHITE
 10
20.327712065
 20
148.79558195749999
 30
0.0
 42
-0.31881019
  0
VERTEX
  5
1785
  8
WHITE
 10
20.211897717500001
 20
148.63240809000001
 30
0.0
 42
0.14420352
  0
VERTEX
  5
1786
  8
WHITE
 10
14.40962515
 20
144.46610380999999
 30
0.0
 42
-0.08927018
  0
VERTEX
  5
1787
  8
WHITE
 10
14.181692464999999
 20
144.2616711
 30
0.0
 42
-0.32610402
  0
VERTEX
  5
1788
  8
WHITE
 10
8.3185458350000001
 20
144.71655520499999
 30
0.0
 42
-0.32610402
  0
VERTEX
  5
1789
  8
WHITE
 10
6.9638542550000002
 20
150.43916146250001
 30
0.0
 42
-0.22936843
  0
VERTEX
  5
178A
  8
WHITE
 10
8.0947297625000001
 20
151.434715815
 30
0.0
 42
0.34249132
  0
VERTEX
  5
178B
  8
WHITE
 10
16.963599912500001
 20
163.3478460625
 30
0.0
 42
-0.20151154
  0
VERTEX
  5
178C
  8
WHITE
 10
17.2104922925
 20
163.97012656999999
 30
0.0
 42
-0.20151154
  0
VERTEX
  5
178D
  8
WHITE
 10
17.827712914999999
 20
164.2294093925
 30
0.0
  0
VERTEX
  5
178E
  8
WHITE
 10
24.642711214999991
 20
164.2294093925
 30
0.0
 42
-0.20151154
  0
VERTEX
  5
178F
  8
WHITE
 10
25.259931837500002
 20
163.97012656999999
 30
0.0
 42
-0.20151154
  0
VERTEX
  5
1790
  8
WHITE
 10
25.5068239125
 20
163.3478460625
 30
0.0
 42
0.34249132
  0
VERTEX
  5
1791
  8
WHITE
 10
34.375694330000002
 20
151.43471561999999
 30
0.0
 42
-0.2293685
  0
VERTEX
  5
1792
  8
WHITE
 10
35.50656966750001
 20
150.43916136999999
 30
0.0
 42
-0.32610402
  0
VERTEX
  5
1793
  8
WHITE
 10
34.15187829500001
 20
144.71655520499999
 30
0.0
 42
-0.32610402
  0
VERTEX
  5
1794
  8
WHITE
 10
28.2887315075
 20
144.26167083749999
 30
0.0
 42
-0.08927018
  0
VERTEX
  5
1795
  8
WHITE
 10
28.060798810000001
 20
144.46610368
 30
0.0
 42
0.06702221
  0
VERTEX
  5
1796
  8
WHITE
 10
25.651223927499998
 20
146.8276120175
 30
0.0
  0
VERTEX
  5
1797
  8
WHITE
 10
25.3712478775
 20
147.0308032625
 30
0.0
  0
VERTEX
  5
1798
  8
WHITE
 10
25.08581671
 20
147.22625739750001
 30
0.0
  0
SEQEND
  5
1799
  8
WHITE
  0
POLYLINE
  5
153
  8
WHITE
 66
     1
 10
0.0
 20
0.0
 30
0.0
 70
     1
  0
VERTEX
  5
179A
  8
WHITE
 10
34.87443192500001
 20
98.238008984999993
 30
0.0
 42
0.16175091
  0
VERTEX
  5
179B
  8
WHITE
 10
29.803347387500001
 20
100.879028815
 30
0.0
  0
VERTEX
  5
179C
  8
WHITE
 10
25.773185682499999
 20
100.87902794999999
 30
0.0
 42
-0.41421354
  0
VERTEX
  5
179D
  8
WHITE
 10
25.60032855
 20
101.0518850925
 30
0.0
  0
VERTEX
  5
179E
  8
WHITE
 10
25.60032855
 20
104.9411708075
 30
0.0
 42
0.41421354
  0
VERTEX
  5
179F
  8
WHITE
 10
25.427471407500001
 20
105.11402794999999
 30
0.0
  0
VERTEX
  5
17A0
  8
WHITE
 10
24.260685694999999
 20
105.11402794999999
 30
0.0
 42
0.4142135500000001
  0
VERTEX
  5
17A1
  8
WHITE
 10
24.087828550000001
 20
104.9411708075
 30
0.0
  0
VERTEX
  5
17A2
  8
WHITE
 10
24.087828550000001
 20
101.051885085
 30
0.0
 42
-0.4142135500000001
  0
VERTEX
  5
17A3
  8
WHITE
 10
23.914971407500001
 20
100.87902794999999
 30
0.0
  0
VERTEX
  5
17A4
  8
WHITE
 10
19.582310382500001
 20
100.87902905999999
 30
0.0
 42
0.40377923
  0
VERTEX
  5
17A5
  8
WHITE
 10
12.0229101325
 20
90.807181792500003
 30
0.0
 42
-0.222975
  0
VERTEX
  5
17A6
  8
WHITE
 10
11.977393729999999
 20
90.667543640000005
 30
0.0
 42
-0.222975
  0
VERTEX
  5
17A7
  8
WHITE
 10
11.8409009075
 20
90.61331878
 30
0.0
 42
-0.2411635
  0
VERTEX
  5
17A8
  8
WHITE
 10
10.23499092
 20
91.562700687499998
 30
0.0
 42
-0.3221703
  0
VERTEX
  5
17A9
  8
WHITE
 10
9.8445244750000001
 20
104.5457105325
 30
0.0
 42
0.30012806
  0
VERTEX
  5
17AA
  8
WHITE
 10
20.705975697500001
 20
114.84446143
 30
0.0
 42
-0.36836783
  0
VERTEX
  5
17AB
  8
WHITE
 10
21.559356372500002
 20
115.5718850925
 30
0.0
  0
VERTEX
  5
17AC
  8
WHITE
 10
27.826301640000001
 20
115.5718850925
 30
0.0
 42
-0.36836783
  0
VERTEX
  5
17AD
  8
WHITE
 10
28.679682017499999
 20
114.8444613875
 30
0.0
 42
0.30012806
  0
VERTEX
  5
17AE
  8
WHITE
 10
39.541133404999989
 20
104.54571045500001
 30
0.0
 42
-0.3221703
  0
VERTEX
  5
17AF
  8
WHITE
 10
39.150667345000002
 20
91.562700509999985
 30
0.0
 42
-0.24116355
  0
VERTEX
  5
17B0
  8
WHITE
 10
37.54475661499999
 20
90.613319114999996
 30
0.0
 42
-0.22297468
  0
VERTEX
  5
17B1
  8
WHITE
 10
37.408264092499991
 20
90.667543795
 30
0.0
 42
-0.22297468
  0
VERTEX
  5
17B2
  8
WHITE
 10
37.362747640000002
 20
90.807181817499995
 30
0.0
 42
0.20721517
  0
VERTEX
  5
17B3
  8
WHITE
 10
35.336635700000002
 20
97.7233731675
 30
0.0
  0
VERTEX
  5
17B4
  8
WHITE
 10
35.110442644999999
 20
97.985099790000021
 30
0.0
  0
VERTEX
  5
17B5
  8
WHITE
 10
34.87443192500001
 20
98.238008984999993
 30
0.0
  0
SEQEND
  5
17B6
  8
WHITE
  0
POLYLINE
  5
171
  8
WHITE
 66
     1
 10
0.0
 20
0.0
 30
0.0
 70
     1
  0
VERTEX
  5
17B7
  8
WHITE
 10
25.382552199999999
 20
166.85910759000001
 30
0.0
 42
0.13131028
  0
VERTEX
  5
17B8
  8
WHITE
 10
21.645004029999988
 20
166.58776817750001
 30
0.0
 42
-0.24264977
  0
VERTEX
  5
17B9
  8
WHITE
 10
21.488164179999998
 20
166.61027095
 30
0.0
 42
-0.24264977
  0
VERTEX
  5
17BA
  8
WHITE
 10
21.415546145
 20
166.75109606500001
 30
0.0
  0
VERTEX
  5
17BB
  8
WHITE
 10
21.415546145
 20
170.44442832749999
 30
0.0
 42
0.4142135200000002
  0
VERTEX
  5
17BC
  8
WHITE
 10
21.242688999999999
 20
170.61728547249999
 30
0.0
  0
VERTEX
  5
17BD
  8
WHITE
 10
20.075903287500001
 20
170.61728547249999
 30
0.0
 42
0.4142135500000001
  0
VERTEX
  5
17BE
  8
WHITE
 10
19.903046145000001
 20
170.44442832749999
 30
0.0
  0
VERTEX
  5
17BF
  8
WHITE
 10
19.903046145000001
 20
166.638850405
 30
0.0
 42
-0.24840605
  0
VERTEX
  5
17C0
  8
WHITE
 10
19.827346554999998
 20
166.49588188000001
 30
0.0
 42
-0.24840605
  0
VERTEX
  5
17C1
  8
WHITE
 10
19.666550229999999
 20
166.4781340975
 30
0.0
 42
0.30055891
  0
VERTEX
  5
17C2
  8
WHITE
 10
11.834789884999999
 20
164.83409674500001
 30
0.0
 42
-0.10269485
  0
VERTEX
  5
17C3
  8
WHITE
 10
11.688452424999999
 20
164.73692273500001
 30
0.0
 42
-0.39707264
  0
VERTEX
  5
17C4
  8
WHITE
 10
9.4812238074999993
 20
165.60434835749999
 30
0.0
 42
-0.36130104
  0
VERTEX
  5
17C5
  8
WHITE
 10
11.000903080000001
 20
171.48157126250001
 30
0.0
 42
0.3647725
  0
VERTEX
  5
17C6
  8
WHITE
 10
16.778638297499999
 20
180.033515755
 30
0.0
 42
-0.2126432
  0
VERTEX
  5
17C7
  8
WHITE
 10
16.995647985000002
 20
180.70253525749999
 30
0.0
 42
-0.2126432
  0
VERTEX
  5
17C8
  8
WHITE
 10
17.638129249999999
 20
180.98871404249999
 30
0.0
  0
VERTEX
  5
17C9
  8
WHITE
 10
23.377962307499988
 20
180.98871404249999
 30
0.0
 42
-0.2126432
  0
VERTEX
  5
17CA
  8
WHITE
 10
24.020443437499999
 20
180.70253525749999
 30
0.0
 42
-0.2126432
  0
VERTEX
  5
17CB
  8
WHITE
 10
24.2374531275
 20
180.033515755
 30
0.0
 42
0.36477249
  0
VERTEX
  5
17CC
  8
WHITE
 10
30.015189119999999
 20
171.4815714225
 30
0.0
 42
-0.36130101
  0
VERTEX
  5
17CD
  8
WHITE
 10
31.5348682025
 20
165.60434803749999
 30
0.0
 42
-0.39707264
  0
VERTEX
  5
17CE
  8
WHITE
 10
29.327639127499999
 20
164.73692305500001
 30
0.0
 42
-0.10269485
  0
VERTEX
  5
17CF
  8
WHITE
 10
29.1813015175
 20
164.83409671999999
 30
0.0
 42
0.12740545
  0
VERTEX
  5
17D0
  8
WHITE
 10
26.054778890000001
 20
166.69722977500001
 30
0.0
  0
VERTEX
  5
17D1
  8
WHITE
 10
25.888204672499999
 20
166.74369813999999
 30
0.0
  0
VERTEX
  5
17D2
  8
WHITE
 10
25.720594429999998
 20
166.78617872250001
 30
0.0
  0
VERTEX
  5
17D3
  8
WHITE
 10
25.552019744999999
 20
166.82465428500001
 30
0.0
  0
VERTEX
  5
17D4
  8
WHITE
 10
25.382552199999999
 20
166.85910759000001
 30
0.0
  0
SEQEND
  5
17D5
  8
WHITE
  0
POLYLINE
  5
191
  8
WHITE
 66
     1
 10
0.0
 20
0.0
 30
0.0
 70
     1
  0
VERTEX
  5
17D6
  8
WHITE
 10
29.781598967499999
 20
120.74372617500001
 30
0.0
 42
0.14667891
  0
VERTEX
  5
17D7
  8
WHITE
 10
24.935089210000001
 20
121.38170381
 30
0.0
 42
-0.21984193
  0
VERTEX
  5
17D8
  8
WHITE
 10
24.795438314999998
 20
121.4207142825
 30
0.0
 42
-0.21984193
  0
VERTEX
  5
17D9
  8
WHITE
 10
24.734624544999999
 20
121.5523420725
 30
0.0
  0
VERTEX
  5
17DA
  8
WHITE
 10
24.734624544999999
 20
125.54614845
 30
0.0
 42
0.41421356
  0
VERTEX
  5
17DB
  8
WHITE
 10
24.561767400000001
 20
125.7190055925
 30
0.0
  0
VERTEX
  5
17DC
  8
WHITE
 10
23.3949816875
 20
125.7190055925
 30
0.0
 42
0.4142135500000001
  0
VERTEX
  5
17DD
  8
WHITE
 10
23.222124545
 20
125.54614845
 30
0.0
  0
VERTEX
  5
17DE
  8
WHITE
 10
23.222123679999999
 20
121.5958346475
 30
0.0
 42
-0.21523375
  0
VERTEX
  5
17DF
  8
WHITE
 10
23.163609345000001
 20
121.466199735
 30
0.0
 42
-0.21523375
  0
VERTEX
  5
17E0
  8
WHITE
 10
23.027682182500001
 20
121.4243309675
 30
0.0
 42
0.32443854
  0
VERTEX
  5
17E1
  8
WHITE
 10
14.2686118825
 20
116.61364931999999
 30
0.0
 42
-0.23338958
  0
VERTEX
  5
17E2
  8
WHITE
 10
13.669380824999999
 20
116.13780865
 30
0.0
 42
-0.23338958
  0
VERTEX
  5
17E3
  8
WHITE
 10
12.927239545000001
 20
116.324163485
 30
0.0
 42
-0.21496135
  0
VERTEX
  5
17E4
  8
WHITE
 10
10.71942656
 20
120.98081619
 30
0.0
 42
-0.21496135
  0
VERTEX
  5
17E5
  8
WHITE
 10
12.746349647500001
 20
125.71900522999999
 30
0.0
 42
0.32502973
  0
VERTEX
  5
17E6
  8
WHITE
 10
20.259065745000001
 20
135.67382406499999
 30
0.0
 42
-0.40895921
  0
VERTEX
  5
17E7
  8
WHITE
 10
21.123211872500001
 20
136.5225770225
 30
0.0
  0
VERTEX
  5
17E8
  8
WHITE
 10
27.136037259999998
 20
136.5225770225
 30
0.0
 42
-0.4089592000000001
  0
VERTEX
  5
17E9
  8
WHITE
 10
28.000183342500002
 20
135.67382405000001
 30
0.0
 42
0.32502973
  0
VERTEX
  5
17EA
  8
WHITE
 10
35.512900267500001
 20
125.7190051675
 30
0.0
 42
-0.21496134
  0
VERTEX
  5
17EB
  8
WHITE
 10
37.539823384999991
 20
120.980815845
 30
0.0
 42
-0.21496134
  0
VERTEX
  5
17EC
  8
WHITE
 10
35.332009370000002
 20
116.324163685
 30
0.0
 42
-0.23338952
  0
VERTEX
  5
17ED
  8
WHITE
 10
34.589868622499999
 20
116.1378094575
 30
0.0
 42
-0.23338952
  0
VERTEX
  5
17EE
  8
WHITE
 10
33.990638044999997
 20
116.61364931
 30
0.0
 42
0.1579118
  0
VERTEX
  5
17EF
  8
WHITE
 10
30.398751342499999
 20
120.43588644499999
 30
0.0
  0
VERTEX
  5
17F0
  8
WHITE
 10
30.093294597500002
 20
120.5960601175
 30
0.0
  0
VERTEX
  5
17F1
  8
WHITE
 10
29.781598967499999
 20
120.74372617500001
 30
0.0
  0
SEQEND
  5
17F2
  8
WHITE
  0
POLYLINE
  5
1AF
  8
WHITE
 66
     1
 10
0.0
 20
0.0
 30
0.0
 70
     1
  0
VERTEX
  5
17F3
  8
WHITE
 10
68.194011402499996
 20
290.13783480749993
 30
0.0
 42
0.12246652
  0
VERTEX
  5
17F4
  8
WHITE
 10
52.486107432499999
 20
296.31972272000002
 30
0.0
 42
0.10657604
  0
VERTEX
  5
17F5
  8
WHITE
 10
27.150641634999999
 20
284.48900182
 30
0.0
 42
0.20955201
  0
VERTEX
  5
17F6
  8
WHITE
 10
25.01246093
 20
277.90546713249989
 30
0.0
 42
-0.34862636
  0
VERTEX
  5
17F7
  8
WHITE
 10
23.17802966999999
 20
274.84380356499997
 30
0.0
 42
-0.34862636
  0
VERTEX
  5
17F8
  8
WHITE
 10
19.7798772075
 20
275.93535694749988
 30
0.0
 42
0.33583279
  0
VERTEX
  5
17F9
  8
WHITE
 10
14.59425916
 20
282.60145931
 30
0.0
 42
-0.21514365
  0
VERTEX
  5
17FA
  8
WHITE
 10
12.6363572525
 20
285.59249288000001
 30
0.0
 42
-0.21514365
  0
VERTEX
  5
17FB
  8
WHITE
 10
13.583194955
 20
289.03968852249989
 30
0.0
 42
-0.1121955
  0
VERTEX
  5
17FC
  8
WHITE
 10
30.114770539999999
 20
302.91237825500002
 30
0.0
 42
0.14650859
  0
VERTEX
  5
17FD
  8
WHITE
 10
39.784148195
 20
314.87551566249999
 30
0.0
 42
-0.4026191
  0
VERTEX
  5
17FE
  8
WHITE
 10
40.003223887499992
 20
314.9724202575
 30
0.0
  0
VERTEX
  5
17FF
  8
WHITE
 10
52.74434757249999
 20
310.33503043500002
 30
0.0
 42
0.41421218
  0
VERTEX
  5
1800
  8
WHITE
 10
52.96589994499999
 20
310.43834295750008
 30
0.0
  0
VERTEX
  5
1801
  8
WHITE
 10
53.364964805
 20
311.53476269750001
 30
0.0
 42
0.41421356
  0
VERTEX
  5
1802
  8
WHITE
 10
53.261652849999997
 20
311.75631590249998
 30
0.0
  0
VERTEX
  5
1803
  8
WHITE
 10
40.490336057500002
 20
316.40469510999998
 30
0.0
 42
-0.24823453
  0
VERTEX
  5
1804
  8
WHITE
 10
40.381907877499991
 20
316.52461934249988
 30
0.0
 42
-0.24823453
  0
VERTEX
  5
1805
  8
WHITE
 10
40.420050895000003
 20
316.68172924250001
 30
0.0
 42
-0.32217278
  0
VERTEX
  5
1806
  8
WHITE
 10
58.013353412500003
 20
320.66489151249999
 30
0.0
 42
-0.40218083
  0
VERTEX
  5
1807
  8
WHITE
 10
70.840809930000006
 20
311.48523004750001
 30
0.0
 42
0.1645318
  0
VERTEX
  5
1808
  8
WHITE
 10
84.326850980000003
 20
300.47379985999999
 30
0.0
 42
-0.29772101
  0
VERTEX
  5
1809
  8
WHITE
 10
85.107537359999995
 20
296.70882777000008
 30
0.0
 42
-0.20251568
  0
VERTEX
  5
180A
  8
WHITE
 10
91.834400669999994
 20
293.41586025250001
 30
0.0
 42
0.2000748
  0
VERTEX
  5
180B
  8
WHITE
 10
122.33337507
 20
269.97473051499998
 30
0.0
 42
-0.20215456
  0
VERTEX
  5
180C
  8
WHITE
 10
126.2658296275
 20
267.91625467249997
 30
0.0
 42
-0.16880548
  0
VERTEX
  5
180D
  8
WHITE
 10
133.0518268175
 20
269.19181481750002
 30
0.0
 42
-0.29093649
  0
VERTEX
  5
180E
  8
WHITE
 10
136.72221307000001
 20
274.31359567750002
 30
0.0
 42
-0.0928419
  0
VERTEX
  5
180F
  8
WHITE
 10
138.39227746
 20
277.83866460500002
 30
0.0
 42
-0.30226462
  0
VERTEX
  5
1810
  8
WHITE
 10
144.73409715
 20
281.08404619250001
 30
0.0
  0
VERTEX
  5
1811
  8
WHITE
 10
134.10773019999999
 20
251.8883442675
 30
0.0
 42
-0.3913082000000001
  0
VERTEX
  5
1812
  8
WHITE
 10
130.2864604225
 20
253.795787265
 30
0.0
 42
-0.2031579
  0
VERTEX
  5
1813
  8
WHITE
 10
124.25914301
 20
256.37701375
 30
0.0
 42
-0.31833439
  0
VERTEX
  5
1814
  8
WHITE
 10
114.62597757499999
 20
257.55843020750001
 30
0.0
 42
0.20773244
  0
VERTEX
  5
1815
  8
WHITE
 10
95.614160032499996
 20
269.12770355250001
 30
0.0
 42
-0.22251421
  0
VERTEX
  5
1816
  8
WHITE
 10
86.842995247499999
 20
273.74083916000001
 30
0.0
 42
-0.27833592
  0
VERTEX
  5
1817
  8
WHITE
 10
78.332399150000001
 20
280.84221185000001
 30
0.0
 42
-0.32676321
  0
VERTEX
  5
1818
  8
WHITE
 10
76.147560552499996
 20
282.28319786750001
 30
0.0
 42
0.07544272
  0
VERTEX
  5
1819
  8
WHITE
 10
68.7533612175
 20
289.73125319500002
 30
0.0
  0
VERTEX
  5
181A
  8
WHITE
 10
68.194011402499996
 20
290.13783480749993
 30
0.0
  0
SEQEND
  5
181B
  8
WHITE
  0
POLYLINE
  5
1D9
  8
WHITE
 66
     1
 10
0.0
 20
0.0
 30
0.0
 70
     1
  0
VERTEX
  5
181C
  8
WHITE
 10
54.106351265000001
 20
200.76466889499989
 30
0.0
 42
0.15338815
  0
VERTEX
  5
181D
  8
WHITE
 10
58.562114987500003
 20
201.55513648499999
 30
0.0
  0
VERTEX
  5
181E
  8
WHITE
 10
63.276412835000002
 20
202.52830624750001
 30
0.0
 42
-0.24854884
  0
VERTEX
  5
181F
  8
WHITE
 10
63.43179988
 20
202.48300850250001
 30
0.0
 42
-0.24854884
  0
VERTEX
  5
1820
  8
WHITE
 10
63.481589870000001
 20
202.32900208250001
 30
0.0
  0
VERTEX
  5
1821
  8
WHITE
 10
61.6047661725
 20
191.68500255000001
 30
0.0
 42
0.41421356
  0
VERTEX
  5
1822
  8
WHITE
 10
61.74498041999999
 20
191.4847548525
 30
0.0
  0
VERTEX
  5
1823
  8
WHITE
 10
62.894040187500003
 20
191.28214428499999
 30
0.0
 42
0.4142132700000002
  0
VERTEX
  5
1824
  8
WHITE
 10
63.09428787249999
 20
191.42235933500001
 30
0.0
  0
VERTEX
  5
1825
  8
WHITE
 10
64.991977079999998
 20
202.184691985
 30
0.0
 42
-0.24854875
  0
VERTEX
  5
1826
  8
WHITE
 10
65.091437995000007
 20
202.31238116
 30
0.0
 42
-0.24854875
  0
VERTEX
  5
1827
  8
WHITE
 10
65.252946422500003
 20
202.30180183499999
 30
0.0
  0
VERTEX
  5
1828
  8
WHITE
 10
69.627133587499998
 20
199.6040748575
 30
0.0
 42
0.21045859
  0
VERTEX
  5
1829
  8
WHITE
 10
75.198163405000003
 20
197.15497177750001
 30
0.0
 42
0.21045859
  0
VERTEX
  5
182A
  8
WHITE
 10
80.765861152499994
 20
199.61164074499999
 30
0.0
 42
0.25067227
  0
VERTEX
  5
182B
  8
WHITE
 10
87.270903200000006
 20
219.70466729750001
 30
0.0
 42
-0.24517442
  0
VERTEX
  5
182C
  8
WHITE
 10
87.747646369999998
 20
221.2310319275
 30
0.0
 42
-0.24517442
  0
VERTEX
  5
182D
  8
WHITE
 10
89.272288237500007
 20
221.7132553575
 30
0.0
  0
VERTEX
  5
182E
  8
WHITE
 10
90.650307972500016
 20
221.47027352750001
 30
0.0
 42
-0.3175683999999999
  0
VERTEX
  5
182F
  8
WHITE
 10
92.054874552499996
 20
220.054068035
 30
0.0
 42
-0.20448812
  0
VERTEX
  5
1830
  8
WHITE
 10
84.140478702500005
 20
187.306694795
 30
0.0
 42
-0.35920069
  0
VERTEX
  5
1831
  8
WHITE
 10
82.004029374999988
 20
186.78261710250001
 30
0.0
 42
0.28335245
  0
VERTEX
  5
1832
  8
WHITE
 10
69.804543572499995
 20
185.52054047749999
 30
0.0
 42
0.28335245
  0
VERTEX
  5
1833
  8
WHITE
 10
65.44675135
 20
174.0562499175
 30
0.0
 42
-0.24661342
  0
VERTEX
  5
1834
  8
WHITE
 10
65.330072334999997
 20
173.67171289000001
 30
0.0
 42
-0.24661342
  0
VERTEX
  5
1835
  8
WHITE
 10
64.947260665000002
 20
173.54949143499999
 30
0.0
  0
VERTEX
  5
1836
  8
WHITE
 10
54.048565087500002
 20
175.471225535
 30
0.0
 42
-0.24661314
  0
VERTEX
  5
1837
  8
WHITE
 10
53.73064252999999
 20
175.7170053525
 30
0.0
 42
-0.24661314
  0
VERTEX
  5
1838
  8
WHITE
 10
53.752519012500002
 20
176.11825838999999
 30
0.0
 42
0.28335245
  0
VERTEX
  5
1839
  8
WHITE
 10
53.578552117500003
 20
188.38162035249999
 30
0.0
 42
0.28335245
  0
VERTEX
  5
183A
  8
WHITE
 10
42.546440805000003
 20
193.74005585750001
 30
0.0
 42
-0.35920067
  0
VERTEX
  5
183B
  8
WHITE
 10
40.7180806175
 20
194.96323501250001
 30
0.0
 42
-0.20448812
  0
VERTEX
  5
183C
  8
WHITE
 10
44.481242115000001
 20
228.44258304749999
 30
0.0
 42
-0.31756836
  0
VERTEX
  5
183D
  8
WHITE
 10
46.285473015000001
 20
229.29299007749989
 30
0.0
  0
VERTEX
  5
183E
  8
WHITE
 10
47.663493615
 20
229.05000824999991
 30
0.0
 42
-0.24517446
  0
VERTEX
  5
183F
  8
WHITE
 10
48.931258112499997
 20
228.07540782250001
 30
0.0
 42
-0.24517446
  0
VERTEX
  5
1840
  8
WHITE
 10
48.857202444999992
 20
226.47803920499999
 30
0.0
 42
0.25067227
  0
VERTEX
  5
1841
  8
WHITE
 10
48.097722675
 20
205.37191497750001
 30
0.0
 42
0.24443151
  0
VERTEX
  5
1842
  8
WHITE
 10
53.424719889999992
 20
200.884967195
 30
0.0
  0
VERTEX
  5
1843
  8
WHITE
 10
53.594059527500001
 20
200.84903635249989
 30
0.0
  0
VERTEX
  5
1844
  8
WHITE
 10
53.764156117500001
 20
200.81700178
 30
0.0
  0
VERTEX
  5
1845
  8
WHITE
 10
53.934942437499998
 20
200.78887534
 30
0.0
  0
VERTEX
  5
1846
  8
WHITE
 10
54.106351265000001
 20
200.76466889499989
 30
0.0
  0
SEQEND
  5
1847
  8
WHITE
  0
POLYLINE
  5
206
  8
WHITE
 66
     1
 10
0.0
 20
0.0
 30
0.0
 70
     1
  0
VERTEX
  5
1848
  8
WHITE
 10
62.221987335000001
 20
110.97620057
 30
0.0
 42
0.23881613
  0
VERTEX
  5
1849
  8
WHITE
 10
68.285772010000002
 20
114.3686113375
 30
0.0
 42
-0.29437189
  0
VERTEX
  5
184A
  8
WHITE
 10
73.196530432499983
 20
116.45070721
 30
0.0
 42
-0.36481256
  0
VERTEX
  5
184B
  8
WHITE
 10
73.339877707499994
 20
116.28038762750001
 30
0.0
  0
VERTEX
  5
184C
  8
WHITE
 10
73.339877707499994
 20
105.53367754750001
 30
0.0
 42
0.4142135500000001
  0
VERTEX
  5
184D
  8
WHITE
 10
73.512734850000001
 20
105.36082041500001
 30
0.0
  0
VERTEX
  5
184E
  8
WHITE
 10
74.679520565000004
 20
105.36082041500001
 30
0.0
 42
0.4142135500000001
  0
VERTEX
  5
184F
  8
WHITE
 10
74.852377707499997
 20
105.5336775575
 30
0.0
  0
VERTEX
  5
1850
  8
WHITE
 10
74.852377707499997
 20
116.2177813725
 30
0.0
 42
-0.34649248
  0
VERTEX
  5
1851
  8
WHITE
 10
74.984715942500003
 20
116.38582139
 30
0.0
 42
-0.31213043
  0
VERTEX
  5
1852
  8
WHITE
 10
80.208982689999985
 20
114.36861085
 30
0.0
 42
0.23187676
  0
VERTEX
  5
1853
  8
WHITE
 10
86.070861357499993
 20
110.98718958249999
 30
0.0
 42
0.23187676
  0
VERTEX
  5
1854
  8
WHITE
 10
92.334627787499997
 20
113.5486065975
 30
0.0
 42
0.21621407
  0
VERTEX
  5
1855
  8
WHITE
 10
90.140050752500002
 20
150.0327003525
 30
0.0
 42
-0.26515205
  0
VERTEX
  5
1856
  8
WHITE
 10
90.167816220000006
 20
150.88870510250001
 30
0.0
 42
-0.26515205
  0
VERTEX
  5
1857
  8
WHITE
 10
90.918759809999983
 20
151.3005290975
 30
0.0
 42
-0.17741677
  0
VERTEX
  5
1858
  8
WHITE
 10
96.171992137499998
 20
149.27546445999999
 30
0.0
 42
-0.11145332
  0
VERTEX
  5
1859
  8
WHITE
 10
96.396115280000004
 20
148.96787367749999
 30
0.0
 42
-0.22792348
  0
VERTEX
  5
185A
  8
WHITE
 10
94.662267087499984
 20
106.16969030999999
 30
0.0
 42
-0.28374787
  0
VERTEX
  5
185B
  8
WHITE
 10
93.094871405000006
 20
105.2531057825
 30
0.0
 42
0.28542075
  0
VERTEX
  5
185C
  8
WHITE
 10
81.820904252500014
 20
101.9176324875
 30
0.0
 42
0.28542075
  0
VERTEX
  5
185D
  8
WHITE
 10
79.819859767500006
 20
90.332144220000004
 30
0.0
 42
-0.22460784
  0
VERTEX
  5
185E
  8
WHITE
 10
79.798855555000003
 20
89.963136930000005
 30
0.0
 42
-0.22460784
  0
VERTEX
  5
185F
  8
WHITE
 10
79.500242407499996
 20
89.745334497499996
 30
0.0
 42
-0.09442374
  0
VERTEX
  5
1860
  8
WHITE
 10
68.994513217499986
 20
89.745335597500002
 30
0.0
 42
-0.22460819
  0
VERTEX
  5
1861
  8
WHITE
 10
68.695899882500001
 20
89.963137112499993
 30
0.0
 42
-0.22460819
  0
VERTEX
  5
1862
  8
WHITE
 10
68.674895647499994
 20
90.332144220000004
 30
0.0
 42
0.28542075
  0
VERTEX
  5
1863
  8
WHITE
 10
66.673851165000002
 20
101.9176324875
 30
0.0
 42
0.28542075
  0
VERTEX
  5
1864
  8
WHITE
 10
55.399884012500003
 20
105.2531057825
 30
0.0
 42
-0.28374787
  0
VERTEX
  5
1865
  8
WHITE
 10
53.83248835749999
 20
106.16969031249999
 30
0.0
 42
-0.22706835
  0
VERTEX
  5
1866
  8
WHITE
 10
52.035149727499991
 20
148.82021234999999
 30
0.0
 42
-0.1960256
  0
VERTEX
  5
1867
  8
WHITE
 10
52.499464504999999
 20
149.2788114725
 30
0.0
 42
-0.03757257
  0
VERTEX
  5
1868
  8
WHITE
 10
57.135699622499999
 20
150.79954950749999
 30
0.0
 42
-0.29388431
  0
VERTEX
  5
1869
  8
WHITE
 10
58.020514955000003
 20
150.49664637750001
 30
0.0
 42
-0.29388431
  0
VERTEX
  5
186A
  8
WHITE
 10
58.1116665475
 20
149.5658725774999
 30
0.0
 42
0.21310266
  0
VERTEX
  5
186B
  8
WHITE
 10
56.160127357500002
 20
113.548606335
 30
0.0
 42
0.20144495
  0
VERTEX
  5
186C
  8
WHITE
 10
61.530558800000001
 20
110.9787994
 30
0.0
  0
VERTEX
  5
186D
  8
WHITE
 10
61.703361212499999
 20
110.972317385
 30
0.0
  0
VERTEX
  5
186E
  8
WHITE
 10
61.876243837499999
 20
110.96972341
 30
0.0
  0
VERTEX
  5
186F
  8
WHITE
 10
62.049141077500003
 20
110.97101772249999
 30
0.0
  0
VERTEX
  5
1870
  8
WHITE
 10
62.221987335000001
 20
110.97620057
 30
0.0
  0
SEQEND
  5
1871
  8
WHITE
  0
POLYLINE
  5
231
  8
WHITE
 66
     1
 10
0.0
 20
0.0
 30
0.0
 70
     1
  0
VERTEX
  5
1872
  8
WHITE
 10
91.208106707499994
 20
24.827096675
 30
0.0
 42
0.40614014
  0
VERTEX
  5
1873
  8
WHITE
 10
101.90190273
 20
25.601618007500001
 30
0.0
 42
0.26370879
  0
VERTEX
  5
1874
  8
WHITE
 10
95.387092117500003
 20
68.741227237499999
 30
0.0
 42
-0.26401247
  0
VERTEX
  5
1875
  8
WHITE
 10
95.323626562499996
 20
69.163107615000001
 30
0.0
 42
-0.26401247
  0
VERTEX
  5
1876
  8
WHITE
 10
95.653306452500004
 20
69.433888132500002
 30
0.0
 42
-0.1427815
  0
VERTEX
  5
1877
  8
WHITE
 10
101.19504343
 20
68.809079080000004
 30
0.0
 42
-0.15418902
  0
VERTEX
  5
1878
  8
WHITE
 10
102.3878453925
 20
67.80054355
 30
0.0
 42
-0.26913515
  0
VERTEX
  5
1879
  8
WHITE
 10
104.22954172999999
 20
18.222701985
 30
0.0
 42
-0.28374784
  0
VERTEX
  5
187A
  8
WHITE
 10
102.66214625249999
 20
17.306117629999999
 30
0.0
 42
0.29403863
  0
VERTEX
  5
187B
  8
WHITE
 10
91.391856877500004
 20
14.0618748625
 30
0.0
 42
0.29403863
  0
VERTEX
  5
187C
  8
WHITE
 10
89.678680689999993
 20
2.4597386225000002
 30
0.0
 42
-0.22846167
  0
VERTEX
  5
187D
  8
WHITE
 10
89.669726839999996
 20
2.08452298
 30
0.0
 42
-0.22846167
  0
VERTEX
  5
187E
  8
WHITE
 10
89.370600727500005
 20
1.8578279175000001
 30
0.0
 42
-0.09996485
  0
VERTEX
  5
187F
  8
WHITE
 10
78.260219724999999
 20
1.8575218275000001
 30
0.0
 42
-0.22880771
  0
VERTEX
  5
1880
  8
WHITE
 10
77.960822077499998
 20
2.0847058425
 30
0.0
 42
-0.22880771
  0
VERTEX
  5
1881
  8
WHITE
 10
77.952576214999993
 20
2.460449802499999
 30
0.0
 42
0.29476454
  0
VERTEX
  5
1882
  8
WHITE
 10
76.252234505000004
 20
14.075138315
 30
0.0
 42
0.29476454
  0
VERTEX
  5
1883
  8
WHITE
 10
64.967158877499983
 20
17.306117669999999
 30
0.0
 42
-0.2837479
  0
VERTEX
  5
1884
  8
WHITE
 10
63.399763
 20
18.222701982499999
 30
0.0
 42
-0.26740322
  0
VERTEX
  5
1885
  8
WHITE
 10
65.071877027499994
 20
67.5298818375
 30
0.0
 42
-0.15574129
  0
VERTEX
  5
1886
  8
WHITE
 10
66.272621244999996
 20
68.552217365000004
 30
0.0
 42
-0.15411618
  0
VERTEX
  5
1887
  8
WHITE
 10
71.695005697499994
 20
69.044236280000007
 30
0.0
 42
-0.25668459
  0
VERTEX
  5
1888
  8
WHITE
 10
72.008547985000007
 20
68.770425270000004
 30
0.0
 42
-0.25668459
  0
VERTEX
  5
1889
  8
WHITE
 10
71.945476499999998
 20
68.358960345
 30
0.0
 42
0.26078586
  0
VERTEX
  5
188A
  8
WHITE
 10
65.727402299999994
 20
25.601618269999999
 30
0.0
 42
0.23187676
  0
VERTEX
  5
188B
  8
WHITE
 10
71.991168729999998
 20
23.040201252500001
 30
0.0
 42
0.23187676
  0
VERTEX
  5
188C
  8
WHITE
 10
77.853047070000002
 20
26.421622760000002
 30
0.0
 42
-0.27614942
  0
VERTEX
  5
188D
  8
WHITE
 10
82.435223622500004
 20
28.549305027500001
 30
0.0
 42
-0.38402604
  0
VERTEX
  5
188E
  8
WHITE
 10
83.209652379999994
 20
27.6897035
 30
0.0
  0
VERTEX
  5
188F
  8
WHITE
 10
83.209652379999994
 20
17.586689227499999
 30
0.0
 42
0.41421356
  0
VERTEX
  5
1890
  8
WHITE
 10
83.382509522500001
 20
17.413832084999999
 30
0.0
  0
VERTEX
  5
1891
  8
WHITE
 10
84.549295237500004
 20
17.413832084999999
 30
0.0
 42
0.41421356
  0
VERTEX
  5
1892
  8
WHITE
 10
84.722152379999997
 20
17.586689227499999
 30
0.0
  0
VERTEX
  5
1893
  8
WHITE
 10
84.722152379999997
 20
27.709938157500002
 30
0.0
 42
-0.40561973
  0
VERTEX
  5
1894
  8
WHITE
 10
85.561005782500004
 20
28.5738493775
 30
0.0
 42
-0.25614444
  0
VERTEX
  5
1895
  8
WHITE
 10
89.776257362500004
 20
26.421622522500002
 30
0.0
 42
0.04745511
  0
VERTEX
  5
1896
  8
WHITE
 10
90.699452077499998
 20
25.295533387500001
 30
0.0
  0
VERTEX
  5
1897
  8
WHITE
 10
90.822639864999999
 20
25.174155412499999
 30
0.0
  0
VERTEX
  5
1898
  8
WHITE
 10
90.948510399999989
 20
25.055593662500002
 30
0.0
  0
VERTEX
  5
1899
  8
WHITE
 10
91.077015432500005
 20
24.939892595
 30
0.0
  0
VERTEX
  5
189A
  8
WHITE
 10
91.208106707499994
 20
24.827096675
 30
0.0
  0
SEQEND
  5
189B
  8
WHITE
  0
POLYLINE
  5
25C
  8
WHITE
 66
     1
 10
0.0
 20
0.0
 30
0.0
 70
     1
  0
VERTEX
  5
189C
  8
WHITE
 10
85.859203837500004
 20
235.18578811249989
 30
0.0
 42
0.24970052
  0
VERTEX
  5
189D
  8
WHITE
 10
73.845995860000002
 20
217.0087223724999
 30
0.0
 42
-0.12983304
  0
VERTEX
  5
189E
  8
WHITE
 10
73.693465847499994
 20
216.59450253750001
 30
0.0
 42
-0.41960954
  0
VERTEX
  5
189F
  8
WHITE
 10
63.358615112499997
 20
214.87195689999999
 30
0.0
 42
-0.3514602
  0
VERTEX
  5
18A0
  8
WHITE
 10
62.736913620000003
 20
216.45539949249999
 30
0.0
 42
-0.3514602
  0
VERTEX
  5
18A1
  8
WHITE
 10
64.147567894999995
 20
217.4061133274999
 30
0.0
 42
0.21289361
  0
VERTEX
  5
18A2
  8
WHITE
 10
69.233307909999994
 20
223.75371971999991
 30
0.0
 42
0.25049293
  0
VERTEX
  5
18A3
  8
WHITE
 10
66.0723774975
 20
250.30229467000001
 30
0.0
 42
-0.38845396
  0
VERTEX
  5
18A4
  8
WHITE
 10
66.148957472500001
 20
250.8806795925
 30
0.0
  0
VERTEX
  5
18A5
  8
WHITE
 10
70.276238622500003
 20
254.34387937
 30
0.0
 42
-0.41421329
  0
VERTEX
  5
18A6
  8
WHITE
 10
70.519765280000001
 20
254.3225729925
 30
0.0
  0
VERTEX
  5
18A7
  8
WHITE
 10
76.837528002499994
 20
246.79335532249991
 30
0.0
 42
0.4142136
  0
VERTEX
  5
18A8
  8
WHITE
 10
77.081054702499998
 20
246.77204950749999
 30
0.0
  0
VERTEX
  5
18A9
  8
WHITE
 10
77.974864467499984
 20
247.52204558
 30
0.0
 42
0.41421323
  0
VERTEX
  5
18AA
  8
WHITE
 10
77.996170322500006
 20
247.7655717575
 30
0.0
  0
VERTEX
  5
18AB
  8
WHITE
 10
71.678406879999997
 20
255.29478944499991
 30
0.0
 42
-0.41421347
  0
VERTEX
  5
18AC
  8
WHITE
 10
71.699713200000005
 20
255.5383161725
 30
0.0
  0
VERTEX
  5
18AD
  8
WHITE
 10
76.034441017500001
 20
259.17558526750003
 30
0.0
 42
-0.40153159
  0
VERTEX
  5
18AE
  8
WHITE
 10
76.630866905000005
 20
259.13645023499998
 30
0.0
 42
0.09755597
  0
VERTEX
  5
18AF
  8
WHITE
 10
88.020073897499998
 20
250.7505689825
 30
0.0
 42
0.08650108
  0
VERTEX
  5
18B0
  8
WHITE
 10
121.2722167475
 20
245.36981933499999
 30
0.0
 42
0.15949017
  0
VERTEX
  5
18B1
  8
WHITE
 10
125.0912736675
 20
246.5258225
 30
0.0
 42
-0.28836969
  0
VERTEX
  5
18B2
  8
WHITE
 10
126.0105787625
 20
246.57066197250001
 30
0.0
 42
-0.21076195
  0
VERTEX
  5
18B3
  8
WHITE
 10
127.6818633725
 20
244.3380135349999
 30
0.0
 42
-0.21076195
  0
VERTEX
  5
18B4
  8
WHITE
 10
127.15980037999999
 20
241.59842190500001
 30
0.0
 42
-0.09389412
  0
VERTEX
  5
18B5
  8
WHITE
 10
120.20434435999999
 20
233.82697091749989
 30
0.0
 42
-0.28247936
  0
VERTEX
  5
18B6
  8
WHITE
 10
119.3047229825
 20
233.73407403499999
 30
0.0
 42
0.19451574
  0
VERTEX
  5
18B7
  8
WHITE
 10
87.042154687500002
 20
235.78488891000001
 30
0.0
 42
0.00665725
  0
VERTEX
  5
18B8
  8
WHITE
 10
86.487444782500006
 20
235.51453971250001
 30
0.0
  0
VERTEX
  5
18B9
  8
WHITE
 10
86.172066955000005
 20
235.3525666974999
 30
0.0
  0
VERTEX
  5
18BA
  8
WHITE
 10
85.859203837500004
 20
235.18578811249989
 30
0.0
  0
SEQEND
  5
18BB
  8
WHITE
  0
POLYLINE
  5
27D
  8
WHITE
 66
     1
 10
0.0
 20
0.0
 30
0.0
 70
     1
  0
VERTEX
  5
18BC
  8
WHITE
 10
100.97922233
 20
161.85122602999999
 30
0.0
 42
0.22865924
  0
VERTEX
  5
18BD
  8
WHITE
 10
95.211057679999996
 20
158.47671797999999
 30
0.0
 42
-0.29437188
  0
VERTEX
  5
18BE
  8
WHITE
 10
90.300299355000007
 20
156.3946222475
 30
0.0
 42
-0.36481256
  0
VERTEX
  5
18BF
  8
WHITE
 10
90.156952079999996
 20
156.56494182750001
 30
0.0
  0
VERTEX
  5
18C0
  8
WHITE
 10
90.156952079999996
 20
167.31165189999999
 30
0.0
 42
0.4142133900000001
  0
VERTEX
  5
18C1
  8
WHITE
 10
89.984094937500004
 20
167.48450904250001
 30
0.0
  0
VERTEX
  5
18C2
  8
WHITE
 10
88.817309212500007
 20
167.48450904250001
 30
0.0
 42
0.4142135500000001
  0
VERTEX
  5
18C3
  8
WHITE
 10
88.644452079999994
 20
167.31165189999999
 30
0.0
  0
VERTEX
  5
18C4
  8
WHITE
 10
88.644452079999994
 20
156.627548085
 30
0.0
 42
-0.34649248
  0
VERTEX
  5
18C5
  8
WHITE
 10
88.512113845000002
 20
156.4595080675
 30
0.0
 42
-0.31213043
  0
VERTEX
  5
18C6
  8
WHITE
 10
83.287846769999987
 20
158.47671836999999
 30
0.0
 42
0.23187676
  0
VERTEX
  5
18C7
  8
WHITE
 10
77.425968429999998
 20
161.85813987500001
 30
0.0
 42
0.23187676
  0
VERTEX
  5
18C8
  8
WHITE
 10
71.162201730000007
 20
159.2967231225
 30
0.0
 42
0.18340327
  0
VERTEX
  5
18C9
  8
WHITE
 10
71.067430659999985
 20
127.900066725
 30
0.0
 42
-0.27259929
  0
VERTEX
  5
18CA
  8
WHITE
 10
70.992140085000003
 20
127.467963285
 30
0.0
 42
-0.27259929
  0
VERTEX
  5
18CB
  8
WHITE
 10
70.577729502500006
 20
127.32427672750001
 30
0.0
 42
-0.13551001
  0
VERTEX
  5
18CC
  8
WHITE
 10
64.862109390000001
 20
130.21246446750001
 30
0.0
 42
-0.19240506
  0
VERTEX
  5
18CD
  8
WHITE
 10
68.834563465000002
 20
166.67563874000001
 30
0.0
 42
-0.28374787
  0
VERTEX
  5
18CE
  8
WHITE
 10
70.401958375000007
 20
167.59222259750001
 30
0.0
 42
0.28200613
  0
VERTEX
  5
18CF
  8
WHITE
 10
81.581686302500003
 20
170.82311092750001
 30
0.0
 42
0.28200613
  0
VERTEX
  5
18D0
  8
WHITE
 10
83.779409909999998
 20
182.25092634999999
 30
0.0
 42
-0.21391875
  0
VERTEX
  5
18D1
  8
WHITE
 10
83.992677584999996
 20
182.92518737750001
 30
0.0
 42
-0.21391875
  0
VERTEX
  5
18D2
  8
WHITE
 10
84.637971675000003
 20
183.21450844500001
 30
0.0
 42
-0.08272414
  0
VERTEX
  5
18D3
  8
WHITE
 10
93.860932479999988
 20
183.21450817749999
 30
0.0
 42
-0.21391875
  0
VERTEX
  5
18D4
  8
WHITE
 10
94.506226574999999
 20
182.92518737750001
 30
0.0
 42
-0.21391875
  0
VERTEX
  5
18D5
  8
WHITE
 10
94.719494172500006
 20
182.25092635249999
 30
0.0
 42
0.28200613
  0
VERTEX
  5
18D6
  8
WHITE
 10
96.917217855000004
 20
170.82311092750001
 30
0.0
 42
0.28200613
  0
VERTEX
  5
18D7
  8
WHITE
 10
108.09694577499999
 20
167.59222281000001
 30
0.0
 42
-0.28374787
  0
VERTEX
  5
18D8
  8
WHITE
 10
109.66434142999999
 20
166.67563914249999
 30
0.0
 42
-0.19240506
  0
VERTEX
  5
18D9
  8
WHITE
 10
113.6367947175
 20
130.21246458499999
 30
0.0
 42
-0.13551001
  0
VERTEX
  5
18DA
  8
WHITE
 10
107.92117468249999
 20
127.3242766075
 30
0.0
 42
-0.27259927
  0
VERTEX
  5
18DB
  8
WHITE
 10
107.50676405750001
 20
127.467963305
 30
0.0
 42
-0.27259927
  0
VERTEX
  5
18DC
  8
WHITE
 10
107.4314733575
 20
127.900066775
 30
0.0
 42
0.18340327
  0
VERTEX
  5
18DD
  8
WHITE
 10
107.33670216
 20
159.29672285999999
 30
0.0
 42
0.2114722
  0
VERTEX
  5
18DE
  8
WHITE
 10
101.67065078749999
 20
161.87525485500001
 30
0.0
  0
VERTEX
  5
18DF
  8
WHITE
 10
101.4976237075
 20
161.87508478250001
 30
0.0
  0
VERTEX
  5
18E0
  8
WHITE
 10
101.3246661575
 20
161.87102165499999
 30
0.0
  0
VERTEX
  5
18E1
  8
WHITE
 10
101.1518438075
 20
161.86306791999999
 30
0.0
  0
VERTEX
  5
18E2
  8
WHITE
 10
100.97922233
 20
161.85122602999999
 30
0.0
  0
SEQEND
  5
18E3
  8
WHITE
  0
POLYLINE
  5
2A6
  8
WHITE
 66
     1
 10
0.0
 20
0.0
 30
0.0
 70
     1
  0
VERTEX
  5
18E4
  8
WHITE
 10
111.0052891575
 20
77.432731140000001
 30
0.0
 42
0.21466994
  0
VERTEX
  5
18E5
  8
WHITE
 10
105.6448268125
 20
74.101771792500003
 30
0.0
 42
-0.29437188
  0
VERTEX
  5
18E6
  8
WHITE
 10
100.7340687075
 20
72.019674932499996
 30
0.0
 42
-0.36481256
  0
VERTEX
  5
18E7
  8
WHITE
 10
100.590720715
 20
72.189995365000001
 30
0.0
  0
VERTEX
  5
18E8
  8
WHITE
 10
100.59072157999999
 20
82.936705434999993
 30
0.0
 42
0.4142135500000001
  0
VERTEX
  5
18E9
  8
WHITE
 10
100.41786444500001
 20
83.1095625775
 30
0.0
  0
VERTEX
  5
18EA
  8
WHITE
 10
99.251078722499997
 20
83.1095625775
 30
0.0
 42
0.41421353
  0
VERTEX
  5
18EB
  8
WHITE
 10
99.078221580000005
 20
82.936705445000015
 30
0.0
  0
VERTEX
  5
18EC
  8
WHITE
 10
99.078221580000005
 20
72.252601619999993
 30
0.0
 42
-0.34649248
  0
VERTEX
  5
18ED
  8
WHITE
 10
98.945883542499999
 20
72.084560580000002
 30
0.0
 42
-0.31213043
  0
VERTEX
  5
18EE
  8
WHITE
 10
93.721615882500004
 20
74.101771657499995
 30
0.0
 42
0.23187676
  0
VERTEX
  5
18EF
  8
WHITE
 10
87.859737929999994
 20
77.483193409999998
 30
0.0
 42
0.23187676
  0
VERTEX
  5
18F0
  8
WHITE
 10
81.595971230000004
 20
74.921776657500004
 30
0.0
 42
0.21621407
  0
VERTEX
  5
18F1
  8
WHITE
 10
83.790548332499995
 20
38.43768253999999
 30
0.0
 42
-0.26515218
  0
VERTEX
  5
18F2
  8
WHITE
 10
83.762782842500002
 20
37.581677525000003
 30
0.0
 42
-0.26515218
  0
VERTEX
  5
18F3
  8
WHITE
 10
83.011838612500014
 20
37.169853895000003
 30
0.0
 42
-0.16982778
  0
VERTEX
  5
18F4
  8
WHITE
 10
77.942347720000001
 20
39.038774580000002
 30
0.0
 42
-0.11998512
  0
VERTEX
  5
18F5
  8
WHITE
 10
77.452417427499995
 20
39.69362349499999
 30
0.0
 42
-0.22681699
  0
VERTEX
  5
18F6
  8
WHITE
 10
79.268332200000003
 20
82.300692682499999
 30
0.0
 42
-0.28374784
  0
VERTEX
  5
18F7
  8
WHITE
 10
80.835727715000004
 20
83.217277002499983
 30
0.0
 42
0.29403863
  0
VERTEX
  5
18F8
  8
WHITE
 10
92.106017019999996
 20
86.461519732499994
 30
0.0
 42
0.29403863
  0
VERTEX
  5
18F9
  8
WHITE
 10
93.819192647500003
 20
98.063655505
 30
0.0
 42
-0.22846201
  0
VERTEX
  5
18FA
  8
WHITE
 10
93.828146242499997
 20
98.438871660000004
 30
0.0
 42
-0.22846201
  0
VERTEX
  5
18FB
  8
WHITE
 10
94.127272749999989
 20
98.665566650000002
 30
0.0
 42
-0.09996486
  0
VERTEX
  5
18FC
  8
WHITE
 10
105.2376542275
 20
98.665872805000006
 30
0.0
 42
-0.2288078
  0
VERTEX
  5
18FD
  8
WHITE
 10
105.5370519475
 20
98.438688690000006
 30
0.0
 42
-0.2288078
  0
VERTEX
  5
18FE
  8
WHITE
 10
105.5452976225
 20
98.062944592500003
 30
0.0
 42
0.2947645300000001
  0
VERTEX
  5
18FF
  8
WHITE
 10
107.24564023000001
 20
86.448256777500006
 30
0.0
 42
0.2947645300000001
  0
VERTEX
  5
1900
  8
WHITE
 10
118.5307150825
 20
83.217276992500004
 30
0.0
 42
-0.28374786
  0
VERTEX
  5
1901
  8
WHITE
 10
120.09811093
 20
82.300692679999983
 30
0.0
 42
-0.22511832
  0
VERTEX
  5
1902
  8
WHITE
 10
122.038519545
 20
39.987868349999999
 30
0.0
 42
-0.20092708
  0
VERTEX
  5
1903
  8
WHITE
 10
121.08656618249999
 20
39.051405785
 30
0.0
 42
-0.03470839
  0
VERTEX
  5
1904
  8
WHITE
 10
116.7948991475
 20
37.67083321749999
 30
0.0
 42
-0.29388442
  0
VERTEX
  5
1905
  8
WHITE
 10
115.91008343
 20
37.973736662500002
 30
0.0
 42
-0.29388442
  0
VERTEX
  5
1906
  8
WHITE
 10
115.818932055
 20
38.904510764999991
 30
0.0
 42
0.21310266
  0
VERTEX
  5
1907
  8
WHITE
 10
117.77047166
 20
74.921776394999995
 30
0.0
 42
0.22536525
  0
VERTEX
  5
1908
  8
WHITE
 10
111.696717745
 20
77.493682614999983
 30
0.0
  0
VERTEX
  5
1909
  8
WHITE
 10
111.52337751500001
 20
77.484302692499995
 30
0.0
  0
VERTEX
  5
190A
  8
WHITE
 10
111.35031526749999
 20
77.471013584999994
 30
0.0
  0
VERTEX
  5
190B
  8
WHITE
 10
111.1775971125
 20
77.453821122500003
 30
0.0
  0
VERTEX
  5
190C
  8
WHITE
 10
111.0052891575
 20
77.432731140000001
 30
0.0
  0
SEQEND
  5
190D
  8
WHITE
  0
POLYLINE
  5
2D1
  8
WHITE
 66
     1
 10
0.0
 20
0.0
 30
0.0
 70
     1
  0
VERTEX
  5
190E
  8
WHITE
 10
136.52391858999999
 20
199.71107517499999
 30
0.0
 42
0.07639783
  0
VERTEX
  5
190F
  8
WHITE
 10
130.57283563249999
 20
184.91152663
 30
0.0
 42
-0.41036087
  0
VERTEX
  5
1910
  8
WHITE
 10
125.43608269249999
 20
181.67558363750001
 30
0.0
  0
VERTEX
  5
1911
  8
WHITE
 10
105.83431708000001
 20
185.99012890750001
 30
0.0
 42
-0.24980916
  0
VERTEX
  5
1912
  8
WHITE
 10
106.89396612500001
 20
192.3987891175
 30
0.0
 42
-0.3276202
  0
VERTEX
  5
1913
  8
WHITE
 10
107.090332515
 20
192.45613468499999
 30
0.0
  0
VERTEX
  5
1914
  8
WHITE
 10
116.3764801075
 20
189.07625378500001
 30
0.0
 42
0.41421329
  0
VERTEX
  5
1915
  8
WHITE
 10
116.5980332675
 20
189.17956609500001
 30
0.0
  0
VERTEX
  5
1916
  8
WHITE
 10
116.99709688750001
 20
190.27598607249999
 30
0.0
 42
0.41421322
  0
VERTEX
  5
1917
  8
WHITE
 10
116.89378544500001
 20
190.49753923
 30
0.0
  0
VERTEX
  5
1918
  8
WHITE
 10
107.7030021875
 20
193.842709985
 30
0.0
 42
-0.32201592
  0
VERTEX
  5
1919
  8
WHITE
 10
107.5893175775
 20
194.00935870999999
 30
0.0
 42
0.24251671
  0
VERTEX
  5
191A
  8
WHITE
 10
100.3778886775
 20
208.88289758499999
 30
0.0
 42
-0.32849355
  0
VERTEX
  5
191B
  8
WHITE
 10
101.2514052625
 20
219.58067200249999
 30
0.0
 42
-0.38325308
  0
VERTEX
  5
191C
  8
WHITE
 10
101.48072584499999
 20
219.608921885
 30
0.0
  0
VERTEX
  5
191D
  8
WHITE
 10
110.0482043075
 20
213.62859195749999
 30
0.0
 42
0.41421329
  0
VERTEX
  5
191E
  8
WHITE
 10
110.28888471
 20
213.671393725
 30
0.0
  0
VERTEX
  5
191F
  8
WHITE
 10
110.95672503
 20
214.62814875750001
 30
0.0
 42
0.41421336
  0
VERTEX
  5
1920
  8
WHITE
 10
110.913923225
 20
214.86882918500001
 30
0.0
  0
VERTEX
  5
1921
  8
WHITE
 10
102.402165045
 20
220.810264335
 30
0.0
 42
-0.32556523
  0
VERTEX
  5
1922
  8
WHITE
 10
102.3358446575
 20
221.00268826249999
 30
0.0
 42
-0.35658782
  0
VERTEX
  5
1923
  8
WHITE
 10
115.980279165
 20
230.10200990999999
 30
0.0
  0
VERTEX
  5
1924
  8
WHITE
 10
131.55518180499999
 20
224.43320957249989
 30
0.0
 42
-0.4142131800000002
  0
VERTEX
  5
1925
  8
WHITE
 10
131.65849364249999
 20
224.21165648499999
 30
0.0
  0
VERTEX
  5
1926
  8
WHITE
 10
126.21488985000001
 20
209.25547650749999
 30
0.0
 42
0.41421357
  0
VERTEX
  5
1927
  8
WHITE
 10
126.3182013575
 20
209.0339233249999
 30
0.0
  0
VERTEX
  5
1928
  8
WHITE
 10
127.4146221375
 20
208.6348588649999
 30
0.0
 42
0.4142133300000002
  0
VERTEX
  5
1929
  8
WHITE
 10
127.6361753175
 20
208.73817123250001
 30
0.0
  0
VERTEX
  5
192A
  8
WHITE
 10
133.07960402750001
 20
223.69387073749999
 30
0.0
 42
-0.41507828
  0
VERTEX
  5
192B
  8
WHITE
 10
133.301636425
 20
223.79700740999999
 30
0.0
  0
VERTEX
  5
192C
  8
WHITE
 10
159.11510444999999
 20
214.31526090749989
 30
0.0
 42
-0.20318643
  0
VERTEX
  5
192D
  8
WHITE
 10
159.60734607000001
 20
213.85398473750001
 30
0.0
 42
-0.20392471
  0
VERTEX
  5
192E
  8
WHITE
 10
159.65676088250001
 20
210.47288243749989
 30
0.0
 42
-0.20392471
  0
VERTEX
  5
192F
  8
WHITE
 10
157.25460387999999
 20
208.09297985500001
 30
0.0
 42
-0.18285841
  0
VERTEX
  5
1930
  8
WHITE
 10
156.64297557750001
 20
208.0827702025
 30
0.0
 42
0.30540481
  0
VERTEX
  5
1931
  8
WHITE
 10
139.09866914
 20
203.6443262825
 30
0.0
 42
0.01909988
  0
VERTEX
  5
1932
  8
WHITE
 10
136.8805000875
 20
200.30403885999999
 30
0.0
  0
VERTEX
  5
1933
  8
WHITE
 10
136.52391858999999
 20
199.71107517499999
 30
0.0
  0
SEQEND
  5
1934
  8
WHITE
  0
POLYLINE
  5
2F9
  8
WHITE
 66
     1
 10
0.0
 20
0.0
 30
0.0
 70
     1
  0
VERTEX
  5
1935
  8
WHITE
 10
119.0910865875
 20
2.460964957499999
 30
0.0
  0
VERTEX
  5
1936
  8
WHITE
 10
111.65647667250001
 20
2.460964957499999
 30
0.0
 42
-0.29588263
  0
VERTEX
  5
1937
  8
WHITE
 10
110.8673407225
 20
2.9727535125000002
 30
0.0
 42
0.14663086
  0
VERTEX
  5
1938
  8
WHITE
 10
106.8192210525
 20
7.6702451424999989
 30
0.0
 42
-0.35461503
  0
VERTEX
  5
1939
  8
WHITE
 10
106.47571555
 20
8.7036600750000002
 30
0.0
  0
VERTEX
  5
193A
  8
WHITE
 10
109.4870875525
 20
16.688285817499999
 30
0.0
 42
-0.20654686
  0
VERTEX
  5
193B
  8
WHITE
 10
110.91439386499999
 20
18.166093132499999
 30
0.0
 42
-0.10329536
  0
VERTEX
  5
193C
  8
WHITE
 10
117.05775284000001
 20
19.344744375000001
 30
0.0
 42
-0.23141942
  0
VERTEX
  5
193D
  8
WHITE
 10
117.193082745
 20
19.275808067500002
 30
0.0
 42
-0.23141942
  0
VERTEX
  5
193E
  8
WHITE
 10
117.221765365
 20
19.126664872500001
 30
0.0
  0
VERTEX
  5
193F
  8
WHITE
 10
115.1866041375
 20
11.622448842500001
 30
0.0
 42
0.4142130800000002
  0
VERTEX
  5
1940
  8
WHITE
 10
115.30818976
 20
11.410373612500001
 30
0.0
  0
VERTEX
  5
1941
  8
WHITE
 10
116.43429736500001
 20
11.104970735
 30
0.0
 42
0.4142149800000002
  0
VERTEX
  5
1942
  8
WHITE
 10
116.646373535
 20
11.226556632499999
 30
0.0
  0
VERTEX
  5
1943
  8
WHITE
 10
121.38392768750001
 20
28.695262764999999
 30
0.0
 42
-0.33860903
  0
VERTEX
  5
1944
  8
WHITE
 10
122.2180818075
 20
29.333324285
 30
0.0
  0
VERTEX
  5
1945
  8
WHITE
 10
129.55291858000001
 20
29.333324285
 30
0.0
 42
-0.33279652
  0
VERTEX
  5
1946
  8
WHITE
 10
130.38216355750001
 20
28.7126418225
 30
0.0
  0
VERTEX
  5
1947
  8
WHITE
 10
135.565661815
 20
11.067618899999999
 30
0.0
 42
0.41421398
  0
VERTEX
  5
1948
  8
WHITE
 10
135.78023231750001
 20
10.950489749999999
 30
0.0
  0
VERTEX
  5
1949
  8
WHITE
 10
136.89971188000001
 20
11.279355935
 30
0.0
 42
0.41421313
  0
VERTEX
  5
194A
  8
WHITE
 10
137.01684026749999
 20
11.4939250975
 30
0.0
  0
VERTEX
  5
194B
  8
WHITE
 10
134.7846781975
 20
19.092374232499999
 30
0.0
 42
-0.4058042000000002
  0
VERTEX
  5
194C
  8
WHITE
 10
134.8970523875
 20
19.305472962500001
 30
0.0
 42
-0.34082997
  0
VERTEX
  5
194D
  8
WHITE
 10
143.31687166250001
 20
16.303886155000001
 30
0.0
  0
VERTEX
  5
194E
  8
WHITE
 10
145.29751204499999
 20
9.0447936225000003
 30
0.0
 42
-0.28749962
  0
VERTEX
  5
194F
  8
WHITE
 10
140.015805
 20
2.4609658224999991
 30
0.0
  0
VERTEX
  5
1950
  8
WHITE
 10
127.44280130750001
 20
2.460964957499999
 30
0.0
 42
-0.34133809
  0
VERTEX
  5
1951
  8
WHITE
 10
127.2755358225
 20
2.5902119025000001
 30
0.0
  0
VERTEX
  5
1952
  8
WHITE
 10
125.4900428075
 20
9.4384515649999994
 30
0.0
 42
0.41421302
  0
VERTEX
  5
1953
  8
WHITE
 10
125.27916770749999
 20
9.5621070024999995
 30
0.0
  0
VERTEX
  5
1954
  8
WHITE
 10
124.1501251075
 20
9.2677404424999992
 30
0.0
 42
0.4142137400000001
  0
VERTEX
  5
1955
  8
WHITE
 10
124.0264696975
 20
9.0568652400000005
 30
0.0
  0
VERTEX
  5
1956
  8
WHITE
 10
125.68973307500001
 20
2.6774312724999989
 30
0.0
 42
-0.23227683
  0
VERTEX
  5
1957
  8
WHITE
 10
125.6592479875
 20
2.5281311025000002
 30
0.0
 42
-0.23227683
  0
VERTEX
  5
1958
  8
WHITE
 10
125.522468215
 20
2.460964957499999
 30
0.0
  0
VERTEX
  5
1959
  8
WHITE
 10
119.7825151575
 20
2.460964957499999
 30
0.0
  0
VERTEX
  5
195A
  8
WHITE
 10
119.0910865875
 20
2.460964957499999
 30
0.0
  0
SEQEND
  5
195B
  8
WHITE
  0
POLYLINE
  5
321
  8
WHITE
 66
     1
 10
0.0
 20
0.0
 30
0.0
 70
     1
  0
VERTEX
  5
195C
  8
WHITE
 10
123.65270123249999
 20
92.525238920000007
 30
0.0
 42
0.07306114
  0
VERTEX
  5
195D
  8
WHITE
 10
121.3141763725
 20
92.879498422500006
 30
0.0
  0
VERTEX
  5
195E
  8
WHITE
 10
118.8293108925
 20
94.341237234999994
 30
0.0
 42
-0.22062733
  0
VERTEX
  5
195F
  8
WHITE
 10
118.70524964000001
 20
94.520737664999984
 30
0.0
 42
-0.22062733
  0
VERTEX
  5
1960
  8
WHITE
 10
118.7621532725
 20
94.731387864999988
 30
0.0
  0
VERTEX
  5
1961
  8
WHITE
 10
122.11361818749999
 20
98.725508842500005
 30
0.0
 42
0.41421356
  0
VERTEX
  5
1962
  8
WHITE
 10
122.09231268000001
 20
98.969036035000002
 30
0.0
  0
VERTEX
  5
1963
  8
WHITE
 10
121.198502965
 20
99.719031200000003
 30
0.0
 42
0.41421356
  0
VERTEX
  5
1964
  8
WHITE
 10
120.9549766375
 20
99.697724827499997
 30
0.0
  0
VERTEX
  5
1965
  8
WHITE
 10
117.50519135
 20
95.586431322500005
 30
0.0
 42
-0.22062727
  0
VERTEX
  5
1966
  8
WHITE
 10
117.37347870249999
 20
95.524686040000006
 30
0.0
 42
-0.22062727
  0
VERTEX
  5
1967
  8
WHITE
 10
117.2412679725
 20
95.585357465000001
 30
0.0
  0
VERTEX
  5
1968
  8
WHITE
 10
115.10487261
 20
98.089722932499996
 30
0.0
 42
0.16487631
  0
VERTEX
  5
1969
  8
WHITE
 10
112.5736715475
 20
102.6595542275
 30
0.0
 42
-0.26802943
  0
VERTEX
  5
196A
  8
WHITE
 10
112.49482854750001
 20
102.9066321725
 30
0.0
 42
-0.31732908
  0
VERTEX
  5
196B
  8
WHITE
 10
115.8882374075
 20
106.01372851000001
 30
0.0
 42
0.25554558
  0
VERTEX
  5
196C
  8
WHITE
 10
121.5860384225
 20
105.67660758
 30
0.0
  0
VERTEX
  5
196D
  8
WHITE
 10
125.17187164249999
 20
109.024428095
 30
0.0
 42
-0.31412543
  0
VERTEX
  5
196E
  8
WHITE
 10
125.46540401
 20
109.06649706250001
 30
0.0
 42
-0.11639891
  0
VERTEX
  5
196F
  8
WHITE
 10
130.3251022975
 20
104.98872672749999
 30
0.0
 42
-0.31412566
  0
VERTEX
  5
1970
  8
WHITE
 10
130.3346425375
 20
104.6923472725
 30
0.0
  0
VERTEX
  5
1971
  8
WHITE
 10
127.66035758
 20
100.579648885
 30
0.0
 42
0.25554558
  0
VERTEX
  5
1972
  8
WHITE
 10
128.98177016
 20
95.026950852499994
 30
0.0
 42
-0.31732898
  0
VERTEX
  5
1973
  8
WHITE
 10
126.51113716250001
 20
91.145552739999999
 30
0.0
 42
-0.26803126
  0
VERTEX
  5
1974
  8
WHITE
 10
126.25412020500001
 20
91.180295130000005
 30
0.0
 42
0.06860521
  0
VERTEX
  5
1975
  8
WHITE
 10
124.32675145
 20
92.286679527499984
 30
0.0
  0
VERTEX
  5
1976
  8
WHITE
 10
124.1602357875
 20
92.351864524999996
 30
0.0
  0
VERTEX
  5
1977
  8
WHITE
 10
123.992348155
 20
92.413367164999997
 30
0.0
  0
VERTEX
  5
1978
  8
WHITE
 10
123.82314961749999
 20
92.471165834999994
 30
0.0
  0
VERTEX
  5
1979
  8
WHITE
 10
123.65270123249999
 20
92.525238920000007
 30
0.0
  0
SEQEND
  5
197A
  8
WHITE
  0
POLYLINE
  5
341
  8
WHITE
 66
     1
 10
0.0
 20
0.0
 30
0.0
 70
     1
  0
VERTEX
  5
197B
  8
WHITE
 10
162.09337564500001
 20
304.72118659500001
 30
0.0
 42
0.03506793
  0
VERTEX
  5
197C
  8
WHITE
 10
171.9115991349999
 20
298.22842854750002
 30
0.0
 42
-0.22179024
  0
VERTEX
  5
197D
  8
WHITE
 10
175.823676745
 20
298.29680120749993
 30
0.0
 42
-0.22179024
  0
VERTEX
  5
197E
  8
WHITE
 10
178.38961190000001
 20
295.3429895575
 30
0.0
  0
VERTEX
  5
197F
  8
WHITE
 10
179.738903435
 20
296.94204061750008
 30
0.0
 42
-0.33408519
  0
VERTEX
  5
1980
  8
WHITE
 10
180.73458138749999
 20
299.19306814999987
 30
0.0
 42
-0.33408519
  0
VERTEX
  5
1981
  8
WHITE
 10
183.17346746250001
 20
298.86090379000001
 30
0.0
 42
0.11075824
  0
VERTEX
  5
1982
  8
WHITE
 10
215.36199813249999
 20
318.53265303249992
 30
0.0
 42
-0.31038048
  0
VERTEX
  5
1983
  8
WHITE
 10
219.80929302999999
 20
318.44692402250001
 30
0.0
  0
VERTEX
  5
1984
  8
WHITE
 10
230.90690892750001
 20
317.367483295
 30
0.0
 42
-0.24890834
  0
VERTEX
  5
1985
  8
WHITE
 10
232.55226157999999
 20
315.52313434000001
 30
0.0
 42
-0.24890834
  0
VERTEX
  5
1986
  8
WHITE
 10
231.94708341750001
 20
313.12676879750001
 30
0.0
 42
0.24185565
  0
VERTEX
  5
1987
  8
WHITE
 10
231.7434971049999
 20
312.36353070249987
 30
0.0
 42
0.20999194
  0
VERTEX
  5
1988
  8
WHITE
 10
241.3977638575
 20
299.06374128499988
 30
0.0
  0
VERTEX
  5
1989
  8
WHITE
 10
241.33365028
 20
286.03309225750002
 30
0.0
  0
VERTEX
  5
198A
  8
WHITE
 10
240.38373372999999
 20
284.07676685000001
 30
0.0
  0
VERTEX
  5
198B
  8
WHITE
 10
241.05347409999999
 20
282.69438516999998
 30
0.0
 42
-0.37839882
  0
VERTEX
  5
198C
  8
WHITE
 10
240.7456692575
 20
281.59223195750002
 30
0.0
 42
-0.3590502199999999
  0
VERTEX
  5
198D
  8
WHITE
 10
236.8295276325
 20
279.86320286500001
 30
0.0
 42
-0.3590502199999999
  0
VERTEX
  5
198E
  8
WHITE
 10
234.38519934999991
 20
283.37759687250002
 30
0.0
  0
VERTEX
  5
198F
  8
WHITE
 10
234.46227926500001
 20
288.20077249500008
 30
0.0
 42
-0.09486654
  0
VERTEX
  5
1990
  8
WHITE
 10
229.83867781999999
 20
296.23729796499998
 30
0.0
 42
-0.38904284
  0
VERTEX
  5
1991
  8
WHITE
 10
224.89061380000001
 20
301.84171748749998
 30
0.0
 42
-0.26147699
  0
VERTEX
  5
1992
  8
WHITE
 10
224.02313191249999
 20
303.30987806249999
 30
0.0
 42
-0.15763786
  0
VERTEX
  5
1993
  8
WHITE
 10
218.96876761999999
 20
303.64715085
 30
0.0
 42
-0.23629939
  0
VERTEX
  5
1994
  8
WHITE
 10
215.46034262500001
 20
303.21385974499992
 30
0.0
 42
-0.06518281
  0
VERTEX
  5
1995
  8
WHITE
 10
185.28136455250001
 20
283.51903296749998
 30
0.0
 42
-0.2217009
  0
VERTEX
  5
1996
  8
WHITE
 10
182.77637975249999
 20
279.97002772749988
 30
0.0
 42
-0.2217009
  0
VERTEX
  5
1997
  8
WHITE
 10
178.44750214000001
 20
279.60780353749999
 30
0.0
 42
-0.35151195
  0
VERTEX
  5
1998
  8
WHITE
 10
172.2589589975
 20
281.26875393
 30
0.0
 42
0.32213791
  0
VERTEX
  5
1999
  8
WHITE
 10
167.95124795000001
 20
285.93523431499989
 30
0.0
 42
-0.09490168
  0
VERTEX
  5
199A
  8
WHITE
 10
146.10827979250001
 20
303.38099218249999
 30
0.0
 42
-0.31389665
  0
VERTEX
  5
199B
  8
WHITE
 10
138.7751293725
 20
305.08613692500001
 30
0.0
 42
-0.39958179
  0
VERTEX
  5
199C
  8
WHITE
 10
133.31992558749999
 20
303.42174740000002
 30
0.0
 42
0.23878109
  0
VERTEX
  5
199D
  8
WHITE
 10
130.71627392249999
 20
302.74412147750002
 30
0.0
 42
0.23878109
  0
VERTEX
  5
199E
  8
WHITE
 10
129.72181260249999
 20
300.24427626499988
 30
0.0
 42
0.17442097
  0
VERTEX
  5
199F
  8
WHITE
 10
132.79074271249999
 20
286.72424495000001
 30
0.0
 42
-0.39734568
  0
VERTEX
  5
19A0
  8
WHITE
 10
132.56918480749999
 20
285.55874524000001
 30
0.0
 42
-0.36657726
  0
VERTEX
  5
19A1
  8
WHITE
 10
124.70738828499999
 20
286.15916106499998
 30
0.0
 42
0.10768418
  0
VERTEX
  5
19A2
  8
WHITE
 10
115.9627076825
 20
299.13727168499997
 30
0.0
 42
-0.20053409
  0
VERTEX
  5
19A3
  8
WHITE
 10
114.0698813675
 20
313.61032595249998
 30
0.0
 42
-0.33834665
  0
VERTEX
  5
19A4
  8
WHITE
 10
114.2366694375
 20
313.73778119999997
 30
0.0
  0
VERTEX
  5
19A5
  8
WHITE
 10
124.5441763
 20
313.73778119999997
 30
0.0
 42
0.4142135500000001
  0
VERTEX
  5
19A6
  8
WHITE
 10
124.717033445
 20
313.91063833499999
 30
0.0
  0
VERTEX
  5
19A7
  8
WHITE
 10
124.717033445
 20
315.07742405750008
 30
0.0
 42
0.41421354
  0
VERTEX
  5
19A8
  8
WHITE
 10
124.5441763
 20
315.25028120000002
 30
0.0
  0
VERTEX
  5
19A9
  8
WHITE
 10
114.27949393
 20
315.25028120000002
 30
0.0
 42
-0.34389307
  0
VERTEX
  5
19AA
  8
WHITE
 10
114.111837085
 20
315.38105990499997
 30
0.0
 42
-0.19769754
  0
VERTEX
  5
19AB
  8
WHITE
 10
116.02032341250001
 20
328.50010386500009
 30
0.0
 42
-0.20378694
  0
VERTEX
  5
19AC
  8
WHITE
 10
121.4704504525
 20
332.50656650500008
 30
0.0
 42
-0.14653353
  0
VERTEX
  5
19AD
  8
WHITE
 10
133.5616334625
 20
331.79042879000002
 30
0.0
 42
-0.30472541
  0
VERTEX
  5
19AE
  8
WHITE
 10
133.84522810499999
 20
331.4007083974999
 30
0.0
 42
0.36782979
  0
VERTEX
  5
19AF
  8
WHITE
 10
141.03176088250001
 20
323.56853820999987
 30
0.0
 42
-0.24929502
  0
VERTEX
  5
19B0
  8
WHITE
 10
148.11189953249999
 20
322.29818560000001
 30
0.0
 42
-0.24929502
  0
VERTEX
  5
19B1
  8
WHITE
 10
151.0187090375
 20
315.71847334749992
 30
0.0
 42
0.20730333
  0
VERTEX
  5
19B2
  8
WHITE
 10
151.4720740475
 20
314.42111226499998
 30
0.0
 42
0.04081695
  0
VERTEX
  5
19B3
  8
WHITE
 10
161.5461897575
 20
305.14454663999999
 30
0.0
  0
VERTEX
  5
19B4
  8
WHITE
 10
162.09337564500001
 20
304.72118659500001
 30
0.0
  0
SEQEND
  5
19B5
  8
WHITE
  0
POLYLINE
  5
37D
  8
WHITE
 66
     1
 10
0.0
 20
0.0
 30
0.0
 70
     1
  0
VERTEX
  5
19B6
  8
WHITE
 10
169.49076540249999
 20
124.232962165
 30
0.0
 42
0.30640092
  0
VERTEX
  5
19B7
  8
WHITE
 10
179.26194388249999
 20
172.21059309500001
 30
0.0
 42
-0.26649495
  0
VERTEX
  5
19B8
  8
WHITE
 10
179.371035605
 20
173.06386646749999
 30
0.0
 42
-0.26649495
  0
VERTEX
  5
19B9
  8
WHITE
 10
180.16272280250001
 20
173.40033141000001
 30
0.0
 42
-0.28031349
  0
VERTEX
  5
19BA
  8
WHITE
 10
185.6775155075
 20
169.07042888000001
 30
0.0
 42
-0.27287554
  0
VERTEX
  5
19BB
  8
WHITE
 10
171.21357943000001
 20
109.43998805
 30
0.0
 42
-0.38486931
  0
VERTEX
  5
19BC
  8
WHITE
 10
168.900736575
 20
109.28883125
 30
0.0
 42
0.3312965
  0
VERTEX
  5
19BD
  8
WHITE
 10
156.03812922500001
 20
109.67089892750001
 30
0.0
 42
0.3312965
  0
VERTEX
  5
19BE
  8
WHITE
 10
151.98010798499999
 20
97.459219704999995
 30
0.0
 42
-0.24991055
  0
VERTEX
  5
19BF
  8
WHITE
 10
151.84190393
 20
96.657861464999996
 30
0.0
 42
-0.24991055
  0
VERTEX
  5
19C0
  8
WHITE
 10
151.0995350375
 20
96.325951820000014
 30
0.0
 42
-0.05263826
  0
VERTEX
  5
19C1
  8
WHITE
 10
139.48049043750001
 20
98.374703150000002
 30
0.0
 42
-0.2499106
  0
VERTEX
  5
19C2
  8
WHITE
 10
138.8964114275
 20
98.940501330000004
 30
0.0
 42
-0.2499106
  0
VERTEX
  5
19C3
  8
WHITE
 10
139.04062251249999
 20
99.740800669999999
 30
0.0
 42
0.3312965
  0
VERTEX
  5
19C4
  8
WHITE
 10
139.40396978499999
 20
112.6039505025
 30
0.0
 42
0.3312965
  0
VERTEX
  5
19C5
  8
WHITE
 10
127.1863978825
 20
116.64419481749999
 30
0.0
 42
-0.3848692899999999
  0
VERTEX
  5
19C6
  8
WHITE
 10
125.0647352325
 20
117.5772740325
 30
0.0
 42
-0.27287554
  0
VERTEX
  5
19C7
  8
WHITE
 10
131.8678934875
 20
178.5585167975
 30
0.0
 42
-0.28031348
  0
VERTEX
  5
19C8
  8
WHITE
 10
138.53101641750001
 20
180.74112325999999
 30
0.0
 42
-0.26649512
  0
VERTEX
  5
19C9
  8
WHITE
 10
139.15988190499999
 20
180.154177495
 30
0.0
 42
-0.26649512
  0
VERTEX
  5
19CA
  8
WHITE
 10
138.97055720750001
 20
179.3150509875
 30
0.0
 42
0.31776691
  0
VERTEX
  5
19CB
  8
WHITE
 10
132.55848887499999
 20
129.2725758025
 30
0.0
 42
0.39320576
  0
VERTEX
  5
19CC
  8
WHITE
 10
141.45791172
 20
126.1883487225
 30
0.0
 42
-0.12157984
  0
VERTEX
  5
19CD
  8
WHITE
 10
149.70869322999999
 20
127.63599562749999
 30
0.0
  0
VERTEX
  5
19CE
  8
WHITE
 10
147.60755069999999
 20
115.71982228500001
 30
0.0
  0
VERTEX
  5
19CF
  8
WHITE
 10
149.09707280000001
 20
115.457179685
 30
0.0
  0
VERTEX
  5
19D0
  8
WHITE
 10
151.20335600999999
 20
127.4025078775
 30
0.0
 42
-0.12599367
  0
VERTEX
  5
19D1
  8
WHITE
 10
158.75419440749999
 20
123.13854813499999
 30
0.0
 42
0.39320577
  0
VERTEX
  5
19D2
  8
WHITE
 10
168.17178272000001
 20
122.9929922
 30
0.0
 42
0.00640163
  0
VERTEX
  5
19D3
  8
WHITE
 10
168.9930908275
 20
123.75295052
 30
0.0
  0
VERTEX
  5
19D4
  8
WHITE
 10
169.49076540249999
 20
124.232962165
 30
0.0
  0
SEQEND
  5
19D5
  8
WHITE
  0
POLYLINE
  5
39E
  8
WHITE
 66
     1
 10
0.0
 20
0.0
 30
0.0
 70
     1
  0
VERTEX
  5
19D6
  8
WHITE
 10
158.60420071749999
 20
29.726586579999999
 30
0.0
 42
0.09008126
  0
VERTEX
  5
19D7
  8
WHITE
 10
164.6140947225
 20
30.66467973
 30
0.0
 42
0.12778714
  0
VERTEX
  5
19D8
  8
WHITE
 10
166.4216132
 20
31.871555959999998
 30
0.0
 42
-0.2048188
  0
VERTEX
  5
19D9
  8
WHITE
 10
172.9891461775
 20
34.954308240000003
 30
0.0
 42
-0.20344047
  0
VERTEX
  5
19DA
  8
WHITE
 10
173.11524541750001
 20
34.90589341750001
 30
0.0
 42
-0.20344047
  0
VERTEX
  5
19DB
  8
WHITE
 10
173.16802025000001
 20
34.781555849999997
 30
0.0
  0
VERTEX
  5
19DC
  8
WHITE
 10
173.16802025000001
 20
23.031658969999992
 30
0.0
 42
0.41421353
  0
VERTEX
  5
19DD
  8
WHITE
 10
173.3408773825
 20
22.858801835000001
 30
0.0
  0
VERTEX
  5
19DE
  8
WHITE
 10
174.50766310750001
 20
22.858801835000001
 30
0.0
 42
0.41421336
  0
VERTEX
  5
19DF
  8
WHITE
 10
174.68052025
 20
23.031658867499999
 30
0.0
  0
VERTEX
  5
19E0
  8
WHITE
 10
174.68052025
 20
34.787033702499997
 30
0.0
 42
-0.4146227
  0
VERTEX
  5
19E1
  8
WHITE
 10
174.85361876249999
 20
34.959890477499997
 30
0.0
 42
-0.21353871
  0
VERTEX
  5
19E2
  8
WHITE
 10
181.72942578749999
 20
31.87155546
 30
0.0
 42
0.12778714
  0
VERTEX
  5
19E3
  8
WHITE
 10
183.53694455999999
 20
30.6646789375
 30
0.0
 42
0.26806938
  0
VERTEX
  5
19E4
  8
WHITE
 10
200.2574589324999
 20
33.868289994999998
 30
0.0
 42
0.1052213
  0
VERTEX
  5
19E5
  8
WHITE
 10
201.9947500525
 20
36.163102555000002
 30
0.0
 42
0.31463565
  0
VERTEX
  5
19E6
  8
WHITE
 10
194.136315145
 20
81.580422409999997
 30
0.0
 42
-0.29327268
  0
VERTEX
  5
19E7
  8
WHITE
 10
193.5512560375
 20
84.319399757499994
 30
0.0
 42
-0.29327268
  0
VERTEX
  5
19E8
  8
WHITE
 10
195.79749687
 20
85.992328049999983
 30
0.0
 42
-0.10235087
  0
VERTEX
  5
19E9
  8
WHITE
 10
198.49242372250001
 20
85.627949902500006
 30
0.0
 42
-0.12098004
  0
VERTEX
  5
19EA
  8
WHITE
 10
199.52738224250001
 20
84.951096947500005
 30
0.0
 42
-0.39378722
  0
VERTEX
  5
19EB
  8
WHITE
 10
199.56242607249999
 20
21.578144614999999
 30
0.0
 42
-0.32728804
  0
VERTEX
  5
19EC
  8
WHITE
 10
194.542881905
 20
20.6207417225
 30
0.0
 42
0.31007586
  0
VERTEX
  5
19ED
  8
WHITE
 10
183.233252085
 20
18.827832415
 30
0.0
 42
0.31007586
  0
VERTEX
  5
19EE
  8
WHITE
 10
180.83639922750001
 20
7.6306295699999991
 30
0.0
 42
-0.25019146
  0
VERTEX
  5
19EF
  8
WHITE
 10
180.75526222249999
 20
6.8206884499999987
 30
0.0
 42
-0.25019146
  0
VERTEX
  5
19F0
  8
WHITE
 10
180.03716940000001
 20
6.4373731499999991
 30
0.0
 42
-0.11561609
  0
VERTEX
  5
19F1
  8
WHITE
 10
168.11387110000001
 20
6.4373724000000001
 30
0.0
 42
-0.25019141
  0
VERTEX
  5
19F2
  8
WHITE
 10
167.39577765249999
 20
6.8206878324999991
 30
0.0
 42
-0.25019141
  0
VERTEX
  5
19F3
  8
WHITE
 10
167.31464006249999
 20
7.6306297074999989
 30
0.0
 42
0.31007586
  0
VERTEX
  5
19F4
  8
WHITE
 10
164.91778755499999
 20
18.827832415
 30
0.0
 42
0.31007586
  0
VERTEX
  5
19F5
  8
WHITE
 10
153.60815773249999
 20
20.6207417225
 30
0.0
 42
-0.32728804
  0
VERTEX
  5
19F6
  8
WHITE
 10
148.5886138825
 20
21.5781449025
 30
0.0
 42
-0.39378722
  0
VERTEX
  5
19F7
  8
WHITE
 10
148.62365742750001
 20
84.951096917499996
 30
0.0
 42
-0.12098004
  0
VERTEX
  5
19F8
  8
WHITE
 10
149.65861576250001
 20
85.627950347500004
 30
0.0
 42
-0.10235087
  0
VERTEX
  5
19F9
  8
WHITE
 10
152.353542785
 20
85.99232902
 30
0.0
 42
-0.29327268
  0
VERTEX
  5
19FA
  8
WHITE
 10
154.59978359999999
 20
84.319399757499994
 30
0.0
 42
-0.29327268
  0
VERTEX
  5
19FB
  8
WHITE
 10
154.01472423499999
 20
81.580422637500007
 30
0.0
 42
0.31463565
  0
VERTEX
  5
19FC
  8
WHITE
 10
146.15628936499999
 20
36.1631024725
 30
0.0
 42
0.1052213
  0
VERTEX
  5
19FD
  8
WHITE
 10
147.89358060999999
 20
33.868289942499999
 30
0.0
 42
0.16333403
  0
VERTEX
  5
19FE
  8
WHITE
 10
157.91277232749999
 20
29.757840375000001
 30
0.0
  0
VERTEX
  5
19FF
  8
WHITE
 10
158.25832761000001
 20
29.738698015000001
 30
0.0
  0
VERTEX
  5
1A00
  8
WHITE
 10
158.60420071749999
 20
29.726586579999999
 30
0.0
  0
SEQEND
  5
1A01
  8
WHITE
  0
POLYLINE
  5
3CB
  8
WHITE
 66
     1
 10
0.0
 20
0.0
 30
0.0
 70
     1
  0
VERTEX
  5
1A02
  8
WHITE
 10
166.3626878625
 20
230.31272963999999
 30
0.0
 42
0.0784603
  0
VERTEX
  5
1A03
  8
WHITE
 10
159.70583722000001
 20
229.87560375999999
 30
0.0
 42
0.22068385
  0
VERTEX
  5
1A04
  8
WHITE
 10
142.03131350250001
 20
233.3304428175
 30
0.0
 42
0.17285613
  0
VERTEX
  5
1A05
  8
WHITE
 10
141.7892238025
 20
233.17055100249991
 30
0.0
 42
-0.29630702
  0
VERTEX
  5
1A06
  8
WHITE
 10
139.961107505
 20
232.50344887750001
 30
0.0
 42
-0.29630702
  0
VERTEX
  5
1A07
  8
WHITE
 10
138.60859791499999
 20
233.90264641249999
 30
0.0
 42
-0.35607503
  0
VERTEX
  5
1A08
  8
WHITE
 10
138.86656687999999
 20
234.38413854250001
 30
0.0
  0
VERTEX
  5
1A09
  8
WHITE
 10
140.84761797499999
 20
235.20957584999991
 30
0.0
 42
-0.12703894
  0
VERTEX
  5
1A0A
  8
WHITE
 10
141.06154923
 20
235.24017465
 30
0.0
  0
VERTEX
  5
1A0B
  8
WHITE
 10
143.14783209500001
 20
235.00836544250001
 30
0.0
 42
0.15458923
  0
VERTEX
  5
1A0C
  8
WHITE
 10
143.40381191500001
 20
235.0592148275
 30
0.0
  0
VERTEX
  5
1A0D
  8
WHITE
 10
145.7143264675
 20
236.32999741
 30
0.0
 42
-0.20498109
  0
VERTEX
  5
1A0E
  8
WHITE
 10
146.05271625750001
 20
236.363430615
 30
0.0
  0
VERTEX
  5
1A0F
  8
WHITE
 10
148.11920093000001
 20
235.71085687249999
 30
0.0
 42
0.18422584
  0
VERTEX
  5
1A10
  8
WHITE
 10
148.54965583750001
 20
235.736062035
 30
0.0
  0
VERTEX
  5
1A11
  8
WHITE
 10
150.669797725
 20
236.6901254775
 30
0.0
 42
-0.22532654
  0
VERTEX
  5
1A12
  8
WHITE
 10
151.18863213
 20
236.67954138499999
 30
0.0
  0
VERTEX
  5
1A13
  8
WHITE
 10
152.505909495
 20
236.0209028825
 30
0.0
 42
0.21226314
  0
VERTEX
  5
1A14
  8
WHITE
 10
152.99693478
 20
235.9986294425
 30
0.0
  0
VERTEX
  5
1A15
  8
WHITE
 10
155.47737381249999
 20
236.9692360825
 30
0.0
 42
-0.21226339
  0
VERTEX
  5
1A16
  8
WHITE
 10
155.96840005749999
 20
236.9469626225
 30
0.0
  0
VERTEX
  5
1A17
  8
WHITE
 10
158.13266013750001
 20
235.86483189750001
 30
0.0
 42
0.16848404
  0
VERTEX
  5
1A18
  8
WHITE
 10
158.52580079000001
 20
235.81350785500001
 30
0.0
  0
VERTEX
  5
1A19
  8
WHITE
 10
162.07944369500001
 20
236.54874470749999
 30
0.0
  0
VERTEX
  5
1A1A
  8
WHITE
 10
168.04217589999999
 20
236.15987058499999
 30
0.0
 42
0.15968053
  0
VERTEX
  5
1A1B
  8
WHITE
 10
171.514130935
 20
239.66408752000001
 30
0.0
 42
0.34258479
  0
VERTEX
  5
1A1C
  8
WHITE
 10
171.47284166750001
 20
239.87202021749999
 30
0.0
 42
0.34258479
  0
VERTEX
  5
1A1D
  8
WHITE
 10
171.26116451999999
 20
239.88358099249999
 30
0.0
 42
-0.16329658
  0
VERTEX
  5
1A1E
  8
WHITE
 10
167.77867276250001
 20
238.875344555
 30
0.0
 42
0.10514212
  0
VERTEX
  5
1A1F
  8
WHITE
 10
167.53053690749999
 20
238.833365585
 30
0.0
  0
VERTEX
  5
1A20
  8
WHITE
 10
165.72844048499999
 20
238.11963031249999
 30
0.0
 42
-0.14920818
  0
VERTEX
  5
1A21
  8
WHITE
 10
165.3763747724999
 20
238.09109540749989
 30
0.0
  0
VERTEX
  5
1A22
  8
WHITE
 10
161.993311565
 20
238.8311400275
 30
0.0
 42
0.18060219
  0
VERTEX
  5
1A23
  8
WHITE
 10
161.57431926000001
 20
238.77124237000001
 30
0.0
  0
VERTEX
  5
1A24
  8
WHITE
 10
159.4167293575
 20
237.5943758025
 30
0.0
 42
-0.2200837
  0
VERTEX
  5
1A25
  8
WHITE
 10
158.90984177999999
 20
237.56082846499999
 30
0.0
  0
VERTEX
  5
1A26
  8
WHITE
 10
156.3318684075
 20
238.55235580749999
 30
0.0
 42
0.20011605
  0
VERTEX
  5
1A27
  8
WHITE
 10
155.866414975
 20
238.539394405
 30
0.0
  0
VERTEX
  5
1A28
  8
WHITE
 10
153.97369559500001
 20
237.68767012250001
 30
0.0
 42
-0.20994179
  0
VERTEX
  5
1A29
  8
WHITE
 10
153.4871031875
 20
237.68330034249999
 30
0.0
  0
VERTEX
  5
1A2A
  8
WHITE
 10
152.29051171500001
 20
238.1961251349999
 30
0.0
 42
0.18635094
  0
VERTEX
  5
1A2B
  8
WHITE
 10
151.8549666875
 20
238.21199351999991
 30
0.0
  0
VERTEX
  5
1A2C
  8
WHITE
 10
148.84036704249999
 20
237.17247617500001
 30
0.0
 42
-0.16492395
  0
VERTEX
  5
1A2D
  8
WHITE
 10
148.45182474500001
 20
237.17047382250001
 30
0.0
  0
VERTEX
  5
1A2E
  8
WHITE
 10
145.65408511499999
 20
238.10305335999999
 30
0.0
 42
0.2314428
  0
VERTEX
  5
1A2F
  8
WHITE
 10
145.27771989999999
 20
238.052651115
 30
0.0
  0
VERTEX
  5
1A30
  8
WHITE
 10
144.03452873750001
 20
237.22385729250001
 30
0.0
  0
VERTEX
  5
1A31
  8
WHITE
 10
141.58829717750001
 20
236.33431909750001
 30
0.0
 42
-0.18474041
  0
VERTEX
  5
1A32
  8
WHITE
 10
141.27954196499999
 20
236.33944236499991
 30
0.0
  0
VERTEX
  5
1A33
  8
WHITE
 10
140.3575677725
 20
236.70977842249999
 30
0.0
 42
0.2417199
  0
VERTEX
  5
1A34
  8
WHITE
 10
139.9644869425
 20
236.67335864250001
 30
0.0
  0
VERTEX
  5
1A35
  8
WHITE
 10
138.85088300749999
 20
235.96470242749999
 30
0.0
 42
-0.41421356
  0
VERTEX
  5
1A36
  8
WHITE
 10
138.0938156
 20
235.94850103249999
 30
0.0
 42
-0.41421356
  0
VERTEX
  5
1A37
  8
WHITE
 10
138.07761432749999
 20
236.70556833000001
 30
0.0
 42
-0.1416123
  0
VERTEX
  5
1A38
  8
WHITE
 10
147.28459527250001
 20
247.5273588325
 30
0.0
 42
-0.18192217
  0
VERTEX
  5
1A39
  8
WHITE
 10
147.8780892675
 20
247.66293697750001
 30
0.0
 42
0.26073411
  0
VERTEX
  5
1A3A
  8
WHITE
 10
160.54827667500001
 20
252.6471829825
 30
0.0
 42
-0.25791926
  0
VERTEX
  5
1A3B
  8
WHITE
 10
161.32466469249999
 20
252.95734044
 30
0.0
 42
0.13713546
  0
VERTEX
  5
1A3C
  8
WHITE
 10
177.12959797249999
 20
255.31045933999999
 30
0.0
 42
-0.38904982
  0
VERTEX
  5
1A3D
  8
WHITE
 10
179.34611465250001
 20
254.571764605
 30
0.0
 42
0.22914815
  0
VERTEX
  5
1A3E
  8
WHITE
 10
186.23127500749999
 20
249.72635450000001
 30
0.0
 42
-0.32375015
  0
VERTEX
  5
1A3F
  8
WHITE
 10
187.65891353500001
 20
248.288625045
 30
0.0
 42
-0.10786313
  0
VERTEX
  5
1A40
  8
WHITE
 10
187.16841245500001
 20
240.01578927
 30
0.0
 42
-0.33602348
  0
VERTEX
  5
1A41
  8
WHITE
 10
187.0020090225
 20
239.8897241075
 30
0.0
  0
VERTEX
  5
1A42
  8
WHITE
 10
176.06964691249999
 20
239.8897241075
 30
0.0
 42
0.41421353
  0
VERTEX
  5
1A43
  8
WHITE
 10
175.89678978000001
 20
239.71686696500001
 30
0.0
  0
VERTEX
  5
1A44
  8
WHITE
 10
175.89678978000001
 20
238.55008125000001
 30
0.0
 42
0.4142135500000001
  0
VERTEX
  5
1A45
  8
WHITE
 10
176.06964691249999
 20
238.3772241074999
 30
0.0
  0
VERTEX
  5
1A46
  8
WHITE
 10
184.95562851
 20
238.3772241074999
 30
0.0
 42
-0.41421353
  0
VERTEX
  5
1A47
  8
WHITE
 10
185.12848564500001
 20
238.20436696499999
 30
0.0
  0
VERTEX
  5
1A48
  8
WHITE
 10
185.12848564500001
 20
235.526757965
 30
0.0
 42
-0.13908548
  0
VERTEX
  5
1A49
  8
WHITE
 10
184.99975864250001
 20
235.07294896499991
 30
0.0
 42
-0.15539101
  0
VERTEX
  5
1A4A
  8
WHITE
 10
176.05383426
 20
227.3885802925
 30
0.0
 42
-0.23781352
  0
VERTEX
  5
1A4B
  8
WHITE
 10
175.2773594475
 20
227.4395786499999
 30
0.0
 42
0.10265213
  0
VERTEX
  5
1A4C
  8
WHITE
 10
167.05022651749999
 20
230.23874425
 30
0.0
  0
VERTEX
  5
1A4D
  8
WHITE
 10
166.70675621999999
 20
230.27851585499999
 30
0.0
  0
VERTEX
  5
1A4E
  8
WHITE
 10
166.3626878625
 20
230.31272963999999
 30
0.0
  0
SEQEND
  5
1A4F
  8
WHITE
  0
POLYLINE
  5
41A
  8
WHITE
 66
     1
 10
0.0
 20
0.0
 30
0.0
 70
     1
  0
VERTEX
  5
1A50
  8
WHITE
 10
197.5432353475
 20
190.146967115
 30
0.0
 42
0.16053378
  0
VERTEX
  5
1A51
  8
WHITE
 10
193.37382157499999
 20
188.98477830749999
 30
0.0
 42
-0.12157984
  0
VERTEX
  5
1A52
  8
WHITE
 10
185.4997687725
 20
186.126391485
 30
0.0
  0
VERTEX
  5
1A53
  8
WHITE
 10
185.49976895750001
 20
198.22639046500001
 30
0.0
  0
VERTEX
  5
1A54
  8
WHITE
 10
183.98726895749999
 20
198.22639046500001
 30
0.0
  0
VERTEX
  5
1A55
  8
WHITE
 10
183.98726884499999
 20
186.09678739750001
 30
0.0
 42
-0.12599366
  0
VERTEX
  5
1A56
  8
WHITE
 10
175.81071615499999
 20
188.98477797499999
 30
0.0
 42
0.39320578
  0
VERTEX
  5
1A57
  8
WHITE
 10
166.51092604499999
 20
187.49277527500001
 30
0.0
 42
0.31776691
  0
VERTEX
  5
1A58
  8
WHITE
 10
164.13579561
 20
137.09711440000001
 30
0.0
 42
-0.26649507
  0
VERTEX
  5
1A59
  8
WHITE
 10
164.17653142250001
 20
136.23786038750001
 30
0.0
 42
-0.26649507
  0
VERTEX
  5
1A5A
  8
WHITE
 10
163.45529809000001
 20
135.76903250999999
 30
0.0
 42
-0.28031351
  0
VERTEX
  5
1A5B
  8
WHITE
 10
157.27240800249999
 20
139.0755199825
 30
0.0
 42
-0.27287554
  0
VERTEX
  5
1A5C
  8
WHITE
 10
161.16188675000001
 20
200.3116767425
 30
0.0
 42
-0.38486927
  0
VERTEX
  5
1A5D
  8
WHITE
 10
163.41334428249999
 20
200.86215690750001
 30
0.0
 42
0.3312965
  0
VERTEX
  5
1A5E
  8
WHITE
 10
176.1468851475
 20
202.7194621475
 30
0.0
 42
0.3312965
  0
VERTEX
  5
1A5F
  8
WHITE
 10
178.0227200825
 20
215.45028651499999
 30
0.0
 42
-0.24991058
  0
VERTEX
  5
1A60
  8
WHITE
 10
178.01967059250001
 20
216.26346867250001
 30
0.0
 42
-0.24991058
  0
VERTEX
  5
1A61
  8
WHITE
 10
178.69312525000001
 20
216.71924633500001
 30
0.0
 42
-0.05263826
  0
VERTEX
  5
1A62
  8
WHITE
 10
190.4914127575
 20
216.71924719499989
 30
0.0
 42
-0.24991058
  0
VERTEX
  5
1A63
  8
WHITE
 10
191.1648680875
 20
216.26346907749999
 30
0.0
 42
-0.24991058
  0
VERTEX
  5
1A64
  8
WHITE
 10
191.16181783499999
 20
215.45028651499999
 30
0.0
 42
0.3312965
  0
VERTEX
  5
1A65
  8
WHITE
 10
193.03765276999999
 20
202.7194621475
 30
0.0
 42
0.3312965
  0
VERTEX
  5
1A66
  8
WHITE
 10
205.77119351999991
 20
200.8621570949999
 30
0.0
 42
-0.38486927
  0
VERTEX
  5
1A67
  8
WHITE
 10
208.02265102999999
 20
200.3116766675
 30
0.0
 42
-0.27287554
  0
VERTEX
  5
1A68
  8
WHITE
 10
211.91212962499989
 20
139.07552015249999
 30
0.0
 42
-0.28031351
  0
VERTEX
  5
1A69
  8
WHITE
 10
205.7292398274999
 20
135.76903250999999
 30
0.0
 42
-0.26649499
  0
VERTEX
  5
1A6A
  8
WHITE
 10
205.00800659999999
 20
136.23786017750001
 30
0.0
 42
-0.26649499
  0
VERTEX
  5
1A6B
  8
WHITE
 10
205.04874139250001
 20
137.0971144275
 30
0.0
 42
0.31776691
  0
VERTEX
  5
1A6C
  8
WHITE
 10
202.6736114
 20
187.4927756475
 30
0.0
 42
0.19277771
  0
VERTEX
  5
1A6D
  8
WHITE
 10
198.2316631075
 20
190.0802943875
 30
0.0
  0
VERTEX
  5
1A6E
  8
WHITE
 10
198.06022222749999
 20
190.10341876499999
 30
0.0
  0
VERTEX
  5
1A6F
  8
WHITE
 10
197.888283425
 20
190.122244225
 30
0.0
  0
VERTEX
  5
1A70
  8
WHITE
 10
197.71592752250001
 20
190.13676294999999
 30
0.0
  0
VERTEX
  5
1A71
  8
WHITE
 10
197.5432353475
 20
190.146967115
 30
0.0
  0
SEQEND
  5
1A72
  8
WHITE
  0
POLYLINE
  5
43E
  8
WHITE
 66
     1
 10
0.0
 20
0.0
 30
0.0
 70
     1
  0
VERTEX
  5
1A73
  8
WHITE
 10
217.44390199
 20
89.728147684999996
 30
0.0
 42
0.03073265
  0
VERTEX
  5
1A74
  8
WHITE
 10
214.4090167924999
 20
94.154714427499997
 30
0.0
 42
0.39320577
  0
VERTEX
  5
1A75
  8
WHITE
 10
205.1092271549999
 20
95.646716754999986
 30
0.0
 42
-0.11876057
  0
VERTEX
  5
1A76
  8
WHITE
 10
197.42827203249999
 20
92.810010349999999
 30
0.0
 42
-0.21420894
  0
VERTEX
  5
1A77
  8
WHITE
 10
197.29318186500001
 20
92.852492089999984
 30
0.0
 42
-0.21420894
  0
VERTEX
  5
1A78
  8
WHITE
 10
197.23517434999999
 20
92.981678599999995
 30
0.0
  0
VERTEX
  5
1A79
  8
WHITE
 10
197.23517434999999
 20
104.715472965
 30
0.0
 42
0.41421353
  0
VERTEX
  5
1A7A
  8
WHITE
 10
197.06231722000001
 20
104.8883301075
 30
0.0
  0
VERTEX
  5
1A7B
  8
WHITE
 10
195.895531495
 20
104.8883301075
 30
0.0
 42
0.4142135500000001
  0
VERTEX
  5
1A7C
  8
WHITE
 10
195.72267435000001
 20
104.7154729725
 30
0.0
  0
VERTEX
  5
1A7D
  8
WHITE
 10
195.72267435000001
 20
92.948705227500014
 30
0.0
 42
-0.21191161
  0
VERTEX
  5
1A7E
  8
WHITE
 10
195.665797965
 20
92.820533260000005
 30
0.0
 42
-0.21191161
  0
VERTEX
  5
1A7F
  8
WHITE
 10
195.53259779749999
 20
92.776707682500003
 30
0.0
 42
-0.12322057
  0
VERTEX
  5
1A80
  8
WHITE
 10
187.5461206825
 20
95.646716754999986
 30
0.0
 42
0.39320576
  0
VERTEX
  5
1A81
  8
WHITE
 10
178.24633094500001
 20
94.154714530000007
 30
0.0
 42
0.31776691
  0
VERTEX
  5
1A82
  8
WHITE
 10
175.8712010525
 20
43.759053205000001
 30
0.0
 42
-0.26649508
  0
VERTEX
  5
1A83
  8
WHITE
 10
175.91193645000001
 20
42.899799317499991
 30
0.0
 42
-0.26649508
  0
VERTEX
  5
1A84
  8
WHITE
 10
175.19070261749999
 20
42.430972152499983
 30
0.0
 42
-0.28031351
  0
VERTEX
  5
1A85
  8
WHITE
 10
169.0078125325
 20
45.737459627500002
 30
0.0
 42
-0.27287554
  0
VERTEX
  5
1A86
  8
WHITE
 10
172.89729127749999
 20
106.973616385
 30
0.0
 42
-0.38486931
  0
VERTEX
  5
1A87
  8
WHITE
 10
175.14874943250001
 20
107.52409666
 30
0.0
 42
0.33998792
  0
VERTEX
  5
1A88
  8
WHITE
 10
187.86011003499999
 20
109.3005960875
 30
0.0
 42
0.33998792
  0
VERTEX
  5
1A89
  8
WHITE
 10
189.40970482
 20
122.041608395
 30
0.0
 42
-0.25446251
  0
VERTEX
  5
1A8A
  8
WHITE
 10
189.37990206750001
 20
122.86728560749999
 30
0.0
 42
-0.25446251
  0
VERTEX
  5
1A8B
  8
WHITE
 10
190.05702292999999
 20
123.3407177775
 30
0.0
 42
-0.14599747
  0
VERTEX
  5
1A8C
  8
WHITE
 10
202.60170366
 20
123.34033811499999
 30
0.0
 42
-0.25419881
  0
VERTEX
  5
1A8D
  8
WHITE
 10
203.2784135675
 20
122.8676306875
 30
0.0
 42
-0.25419881
  0
VERTEX
  5
1A8E
  8
WHITE
 10
203.24981381750001
 20
122.04266362
 30
0.0
 42
0.33940168
  0
VERTEX
  5
1A8F
  8
WHITE
 10
204.80905003500001
 20
109.31464020999999
 30
0.0
 42
0.33940168
  0
VERTEX
  5
1A90
  8
WHITE
 10
217.5065986999999
 20
107.5240966775
 30
0.0
 42
-0.38486926
  0
VERTEX
  5
1A91
  8
WHITE
 10
219.7580558475
 20
106.973615885
 30
0.0
 42
-0.27287554
  0
VERTEX
  5
1A92
  8
WHITE
 10
223.64753501749999
 20
45.737459797499987
 30
0.0
 42
-0.28031351
  0
VERTEX
  5
1A93
  8
WHITE
 10
217.46464521999999
 20
42.430972152499983
 30
0.0
 42
-0.26649508
  0
VERTEX
  5
1A94
  8
WHITE
 10
216.7434113875
 20
42.899799317499991
 30
0.0
 42
-0.26649508
  0
VERTEX
  5
1A95
  8
WHITE
 10
216.7841464375
 20
43.759053420000001
 30
0.0
 42
0.27987487
  0
VERTEX
  5
1A96
  8
WHITE
 10
217.80357738750001
 20
89.116293717500014
 30
0.0
  0
VERTEX
  5
1A97
  8
WHITE
 10
217.44390199
 20
89.728147684999996
 30
0.0
  0
SEQEND
  5
1A98
  8
WHITE
  0
POLYLINE
  5
465
  8
WHITE
 66
     1
 10
0.0
 20
0.0
 30
0.0
 70
     1
  0
VERTEX
  5
1A99
  8
WHITE
 10
198.06217211000001
 20
253.57215292750001
 30
0.0
 42
0.16390825
  0
VERTEX
  5
1A9A
  8
WHITE
 10
191.07230671249999
 20
253.78361391999991
 30
0.0
 42
-0.4061077
  0
VERTEX
  5
1A9B
  8
WHITE
 10
190.00154054500001
 20
254.33676894249999
 30
0.0
 42
-0.185658
  0
VERTEX
  5
1A9C
  8
WHITE
 10
190.38268621
 20
262.8583110175
 30
0.0
 42
-0.3188992
  0
VERTEX
  5
1A9D
  8
WHITE
 10
191.24020423499999
 20
263.37414601249998
 30
0.0
 42
-0.01204031
  0
VERTEX
  5
1A9E
  8
WHITE
 10
200.40655072999991
 20
262.45504039500003
 30
0.0
 42
0.22726166
  0
VERTEX
  5
1A9F
  8
WHITE
 10
203.9489321975
 20
263.64042710749999
 30
0.0
 42
0.22726166
  0
VERTEX
  5
1AA0
  8
WHITE
 10
205.24388817249999
 20
267.14423804
 30
0.0
  0
VERTEX
  5
1AA1
  8
WHITE
 10
204.9068198075
 20
270.76140655
 30
0.0
 42
-0.36848137
  0
VERTEX
  5
1AA2
  8
WHITE
 10
206.19770151500001
 20
272.59596323499989
 30
0.0
 42
-0.12643717
  0
VERTEX
  5
1AA3
  8
WHITE
 10
212.00320694249999
 20
272.59596323499989
 30
0.0
 42
-0.36848138
  0
VERTEX
  5
1AA4
  8
WHITE
 10
213.29408828999999
 20
270.76140625499988
 30
0.0
  0
VERTEX
  5
1AA5
  8
WHITE
 10
212.95702067999991
 20
267.14423773499999
 30
0.0
 42
0.22726166
  0
VERTEX
  5
1AA6
  8
WHITE
 10
214.25197625999999
 20
263.64042710749999
 30
0.0
 42
0.22726166
  0
VERTEX
  5
1AA7
  8
WHITE
 10
217.794356765
 20
262.455040075
 30
0.0
 42
-0.0120403
  0
VERTEX
  5
1AA8
  8
WHITE
 10
226.960700895
 20
263.37414575999998
 30
0.0
 42
-0.31889997
  0
VERTEX
  5
1AA9
  8
WHITE
 10
227.81822210749999
 20
262.85831057749988
 30
0.0
 42
-0.18565799
  0
VERTEX
  5
1AAA
  8
WHITE
 10
228.19936709500001
 20
254.33676921749989
 30
0.0
 42
-0.4061077
  0
VERTEX
  5
1AAB
  8
WHITE
 10
227.12860178
 20
253.783614005
 30
0.0
 42
0.295396
  0
VERTEX
  5
1AAC
  8
WHITE
 10
215.6885219875
 20
250.49680233749999
 30
0.0
 42
-0.28966599
  0
VERTEX
  5
1AAD
  8
WHITE
 10
209.89118408499999
 20
246.19449105000001
 30
0.0
 42
-0.20861668
  0
VERTEX
  5
1AAE
  8
WHITE
 10
209.76072214749999
 20
246.24017086750001
 30
0.0
 42
-0.20861668
  0
VERTEX
  5
1AAF
  8
WHITE
 10
209.7054542299999
 20
246.36686879000001
 30
0.0
  0
VERTEX
  5
1AB0
  8
WHITE
 10
209.7054542299999
 20
254.6742309725
 30
0.0
 42
0.41421356
  0
VERTEX
  5
1AB1
  8
WHITE
 10
209.53259708749999
 20
254.84708811499999
 30
0.0
  0
VERTEX
  5
1AB2
  8
WHITE
 10
208.36581137249999
 20
254.84708811499999
 30
0.0
 42
0.41421335
  0
VERTEX
  5
1AB3
  8
WHITE
 10
208.19295423
 20
254.6742310825
 30
0.0
  0
VERTEX
  5
1AB4
  8
WHITE
 10
208.19295423
 20
246.3964973775
 30
0.0
 42
-0.21464906
  0
VERTEX
  5
1AB5
  8
WHITE
 10
208.1347291225
 20
246.26711775000001
 30
0.0
 42
-0.21464906
  0
VERTEX
  5
1AB6
  8
WHITE
 10
207.99927883000001
 20
246.2248984499999
 30
0.0
 42
-0.27719027
  0
VERTEX
  5
1AB7
  8
WHITE
 10
202.5123864725
 20
250.49680233749999
 30
0.0
 42
0.10938096
  0
VERTEX
  5
1AB8
  8
WHITE
 10
198.7037889225
 20
253.31080801499999
 30
0.0
  0
VERTEX
  5
1AB9
  8
WHITE
 10
198.38504742250001
 20
253.44655484750001
 30
0.0
  0
VERTEX
  5
1ABA
  8
WHITE
 10
198.06217211000001
 20
253.57215292750001
 30
0.0
  0
SEQEND
  5
1ABB
  8
WHITE
  0
POLYLINE
  5
489
  8
WHITE
 66
     1
 10
0.0
 20
0.0
 30
0.0
 70
     1
  0
VERTEX
  5
1ABC
  8
WHITE
 10
246.9459054125
 20
209.05149388500001
 30
0.0
 42
0.13936472
  0
VERTEX
  5
1ABD
  8
WHITE
 10
239.83408353499991
 20
199.92950171000001
 30
0.0
 42
-0.20185407
  0
VERTEX
  5
1ABE
  8
WHITE
 10
236.7016565575
 20
196.10552017750001
 30
0.0
 42
-0.20185407
  0
VERTEX
  5
1ABF
  8
WHITE
 10
231.77751589999991
 20
195.6721933375
 30
0.0
 42
-0.32590882
  0
VERTEX
  5
1AC0
  8
WHITE
 10
231.65748597999999
 20
195.83678036750001
 30
0.0
  0
VERTEX
  5
1AC1
  8
WHITE
 10
231.65748597999999
 20
209.81207909999989
 30
0.0
 42
0.41421353
  0
VERTEX
  5
1AC2
  8
WHITE
 10
231.484628845
 20
209.9849362425
 30
0.0
  0
VERTEX
  5
1AC3
  8
WHITE
 10
230.31784312249999
 20
209.9849362425
 30
0.0
 42
0.4142135500000001
  0
VERTEX
  5
1AC4
  8
WHITE
 10
230.14498598
 20
209.81207911000001
 30
0.0
  0
VERTEX
  5
1AC5
  8
WHITE
 10
230.14498598
 20
195.7481056275
 30
0.0
 42
-0.34003288
  0
VERTEX
  5
1AC6
  8
WHITE
 10
230.01652106499989
 20
195.5810457725
 30
0.0
 42
-0.40596811
  0
VERTEX
  5
1AC7
  8
WHITE
 10
222.2708881625
 20
199.929501475
 30
0.0
 42
0.27658364
  0
VERTEX
  5
1AC8
  8
WHITE
 10
204.91120959249989
 20
213.01354795750001
 30
0.0
 42
-0.20703061
  0
VERTEX
  5
1AC9
  8
WHITE
 10
198.88398135
 20
215.3704542975
 30
0.0
 42
-0.20703061
  0
VERTEX
  5
1ACA
  8
WHITE
 10
196.47480088500001
 20
221.37697893750001
 30
0.0
 42
-0.4063733100000002
  0
VERTEX
  5
1ACB
  8
WHITE
 10
196.6475966225
 20
221.54519672750001
 30
0.0
  0
VERTEX
  5
1ACC
  8
WHITE
 10
210.26701090749989
 20
221.54519672750001
 30
0.0
 42
0.4142132700000002
  0
VERTEX
  5
1ACD
  8
WHITE
 10
210.43986805
 20
221.71805386
 30
0.0
  0
VERTEX
  5
1ACE
  8
WHITE
 10
210.43986805
 20
222.88483958500001
 30
0.0
 42
0.4142135500000001
  0
VERTEX
  5
1ACF
  8
WHITE
 10
210.26701090749989
 20
223.0576967275
 30
0.0
  0
VERTEX
  5
1AD0
  8
WHITE
 10
196.6614683999999
 20
223.0576967275
 30
0.0
 42
-0.39535666
  0
VERTEX
  5
1AD1
  8
WHITE
 10
196.4889737625
 20
223.21935913999999
 30
0.0
 42
-0.21198439
  0
VERTEX
  5
1AD2
  8
WHITE
 10
198.77515847999999
 20
229.42499025250001
 30
0.0
 42
-0.21198439
  0
VERTEX
  5
1AD3
  8
WHITE
 10
204.9112095049999
 20
231.8918455525
 30
0.0
 42
0.27658364
  0
VERTEX
  5
1AD4
  8
WHITE
 10
222.2708876225
 20
244.9758920724999
 30
0.0
 42
-0.40596812
  0
VERTEX
  5
1AD5
  8
WHITE
 10
230.01652100999999
 20
249.32434748
 30
0.0
 42
-0.34003288
  0
VERTEX
  5
1AD6
  8
WHITE
 10
230.14498598
 20
249.1572878275
 30
0.0
  0
VERTEX
  5
1AD7
  8
WHITE
 10
230.14498598
 20
235.09331435749999
 30
0.0
 42
0.41421353
  0
VERTEX
  5
1AD8
  8
WHITE
 10
230.31784311249999
 20
234.920457215
 30
0.0
  0
VERTEX
  5
1AD9
  8
WHITE
 10
231.4846288375
 20
234.920457215
 30
0.0
 42
0.41421322
  0
VERTEX
  5
1ADA
  8
WHITE
 10
231.65748597999999
 20
235.0933141575
 30
0.0
  0
VERTEX
  5
1ADB
  8
WHITE
 10
231.65748597999999
 20
249.06861297750001
 30
0.0
 42
-0.32590882
  0
VERTEX
  5
1ADC
  8
WHITE
 10
231.77751592749991
 20
249.23319997499999
 30
0.0
 42
-0.20185407
  0
VERTEX
  5
1ADD
  8
WHITE
 10
236.70165660750001
 20
248.79987325499999
 30
0.0
 42
-0.20185407
  0
VERTEX
  5
1ADE
  8
WHITE
 10
239.83408353499991
 20
244.97589174749999
 30
0.0
 42
0.27658364
  0
VERTEX
  5
1ADF
  8
WHITE
 10
257.19376236250002
 20
231.8918446925
 30
0.0
 42
-0.21198439
  0
VERTEX
  5
1AE0
  8
WHITE
 10
263.32981347999998
 20
229.42499025250001
 30
0.0
 42
-0.21198439
  0
VERTEX
  5
1AE1
  8
WHITE
 10
265.61599781500001
 20
223.21935920999999
 30
0.0
 42
-0.39535666
  0
VERTEX
  5
1AE2
  8
WHITE
 10
265.44350355
 20
223.0576967275
 30
0.0
  0
VERTEX
  5
1AE3
  8
WHITE
 10
251.83796104999999
 20
223.0576967275
 30
0.0
 42
0.4142135500000001
  0
VERTEX
  5
1AE4
  8
WHITE
 10
251.6651039075
 20
222.88483959499999
 30
0.0
  0
VERTEX
  5
1AE5
  8
WHITE
 10
251.6651039075
 20
221.71805387250001
 30
0.0
 42
0.41421353
  0
VERTEX
  5
1AE6
  8
WHITE
 10
251.83796104250001
 20
221.54519672750001
 30
0.0
  0
VERTEX
  5
1AE7
  8
WHITE
 10
265.45737533750003
 20
221.54519672750001
 30
0.0
 42
-0.4063733100000002
  0
VERTEX
  5
1AE8
  8
WHITE
 10
265.63017021000002
 20
221.37697891249999
 30
0.0
 42
-0.20703061
  0
VERTEX
  5
1AE9
  8
WHITE
 10
263.22099045750002
 20
215.3704541475
 30
0.0
 42
-0.20703061
  0
VERTEX
  5
1AEA
  8
WHITE
 10
257.19376193999989
 20
213.01354797249999
 30
0.0
 42
0.1238009
  0
VERTEX
  5
1AEB
  8
WHITE
 10
247.51180991000001
 20
209.4514705499999
 30
0.0
  0
VERTEX
  5
1AEC
  8
WHITE
 10
247.2272195349999
 20
209.2537999125
 30
0.0
  0
VERTEX
  5
1AED
  8
WHITE
 10
246.9459054125
 20
209.05149388500001
 30
0.0
  0
SEQEND
  5
1AEE
  8
WHITE
  0
POLYLINE
  5
4BD
  8
WHITE
 66
     1
 10
0.0
 20
0.0
 30
0.0
 70
     1
  0
VERTEX
  5
1AEF
  8
WHITE
 10
218.09429650249999
 20
17.174976752500001
 30
0.0
 42
0.07553113
  0
VERTEX
  5
1AF0
  8
WHITE
 10
215.6943791775
 20
17.638520677500001
 30
0.0
 42
-0.26802953
  0
VERTEX
  5
1AF1
  8
WHITE
 10
215.47516274
 20
17.777113827499999
 30
0.0
 42
-0.31732903
  0
VERTEX
  5
1AF2
  8
WHITE
 10
216.07746176750001
 20
22.338529305000002
 30
0.0
 42
0.25554558
  0
VERTEX
  5
1AF3
  8
WHITE
 10
220.65892807500001
 20
25.742755302500001
 30
0.0
  0
VERTEX
  5
1AF4
  8
WHITE
 10
221.2538977975
 20
30.612262550000001
 30
0.0
 42
-0.31412626
  0
VERTEX
  5
1AF5
  8
WHITE
 10
221.45171582250001
 20
30.833169510000001
 30
0.0
 42
-0.11639891
  0
VERTEX
  5
1AF6
  8
WHITE
 10
227.795600855
 20
30.833169717499992
 30
0.0
 42
-0.31412537
  0
VERTEX
  5
1AF7
  8
WHITE
 10
227.99341756499999
 20
30.6122623075
 30
0.0
  0
VERTEX
  5
1AF8
  8
WHITE
 10
228.58838855499999
 20
25.742755302500001
 30
0.0
 42
0.25554558
  0
VERTEX
  5
1AF9
  8
WHITE
 10
233.1698543775
 20
22.338528895
 30
0.0
 42
-0.317329
  0
VERTEX
  5
1AFA
  8
WHITE
 10
233.77215390500001
 20
17.777113207500001
 30
0.0
 42
-0.26802984
  0
VERTEX
  5
1AFB
  8
WHITE
 10
233.55293661249999
 20
17.638520032500001
 30
0.0
 42
0.16487631
  0
VERTEX
  5
1AFC
  8
WHITE
 10
228.67649367999999
 20
15.764851
 30
0.0
  0
VERTEX
  5
1AFD
  8
WHITE
 10
225.43014489000001
 20
15.219644215000001
 30
0.0
 42
-0.22062721
  0
VERTEX
  5
1AFE
  8
WHITE
 10
225.28986692500001
 20
15.258151137500001
 30
0.0
 42
-0.22062721
  0
VERTEX
  5
1AFF
  8
WHITE
 10
225.22865831499999
 20
15.390114000000001
 30
0.0
  0
VERTEX
  5
1B00
  8
WHITE
 10
225.22865831499999
 20
20.75702665
 30
0.0
 42
0.41421353
  0
VERTEX
  5
1B01
  8
WHITE
 10
225.0558011725
 20
20.9298837925
 30
0.0
  0
VERTEX
  5
1B02
  8
WHITE
 10
223.8890153975
 20
20.9298837925
 30
0.0
 42
0.41421346
  0
VERTEX
  5
1B03
  8
WHITE
 10
223.716158315
 20
20.75702665
 30
0.0
  0
VERTEX
  5
1B04
  8
WHITE
 10
223.716158315
 20
15.4409175675
 30
0.0
 42
-0.22062724
  0
VERTEX
  5
1B05
  8
WHITE
 10
223.6549496824999
 20
15.308954697500001
 30
0.0
 42
-0.22062724
  0
VERTEX
  5
1B06
  8
WHITE
 10
223.51467170750001
 20
15.2704475925
 30
0.0
  0
VERTEX
  5
1B07
  8
WHITE
 10
220.57082262
 20
15.764851495
 30
0.0
 42
0.06658649
  0
VERTEX
  5
1B08
  8
WHITE
 10
218.74360502249999
 20
16.9121376025
 30
0.0
  0
VERTEX
  5
1B09
  8
WHITE
 10
218.58342853249999
 20
16.9830791025
 30
0.0
  0
VERTEX
  5
1B0A
  8
WHITE
 10
218.4217806474999
 20
17.050548030000002
 30
0.0
  0
VERTEX
  5
1B0B
  8
WHITE
 10
218.2587178224999
 20
17.1145215325
 30
0.0
  0
VERTEX
  5
1B0C
  8
WHITE
 10
218.09429650249999
 20
17.174976752500001
 30
0.0
  0
SEQEND
  5
1B0D
  8
WHITE
  0
POLYLINE
  5
4DD
  8
WHITE
 66
     1
 10
0.0
 20
0.0
 30
0.0
 70
     1
  0
VERTEX
  5
1B0E
  8
WHITE
 10
273.95467827250002
 20
123.995394045
 30
0.0
 42
0.15115547
  0
VERTEX
  5
1B0F
  8
WHITE
 10
283.72943354
 20
126.3724644575
 30
0.0
 42
0.10522127
  0
VERTEX
  5
1B10
  8
WHITE
 10
285.83882074000002
 20
128.33073520249999
 30
0.0
 42
0.26803816
  0
VERTEX
  5
1B11
  8
WHITE
 10
289.42112898250002
 20
168.43162405499999
 30
0.0
 42
-0.41421356
  0
VERTEX
  5
1B12
  8
WHITE
 10
291.15348545249992
 20
172.4824008825
 30
0.0
 42
-0.41421356
  0
VERTEX
  5
1B13
  8
WHITE
 10
295.20426181250002
 20
170.75004630999999
 30
0.0
 42
-0.35142417
  0
VERTEX
  5
1B14
  8
WHITE
 10
280.91079804999998
 20
114.3897241575
 30
0.0
 42
-0.32728797
  0
VERTEX
  5
1B15
  8
WHITE
 10
275.80126161750002
 20
114.318501095
 30
0.0
 42
0.3010212
  0
VERTEX
  5
1B16
  8
WHITE
 10
264.03369325249997
 20
114.4445257325
 30
0.0
 42
0.3010212
  0
VERTEX
  5
1B17
  8
WHITE
 10
259.32192101250001
 20
103.6607066025
 30
0.0
 42
-0.2161086
  0
VERTEX
  5
1B18
  8
WHITE
 10
259.17908924
 20
103.10783243500001
 30
0.0
 42
-0.2161086
  0
VERTEX
  5
1B19
  8
WHITE
 10
258.66911387750002
 20
102.8509361225
 30
0.0
 42
-0.06237111
  0
VERTEX
  5
1B1A
  8
WHITE
 10
247.66928223249991
 20
104.7895549225
 30
0.0
 42
-0.21677494
  0
VERTEX
  5
1B1B
  8
WHITE
 10
247.27728862500001
 20
105.20698145999999
 30
0.0
 42
-0.21677494
  0
VERTEX
  5
1B1C
  8
WHITE
 10
247.33439955750001
 20
105.7767553675
 30
0.0
 42
0.30243794
  0
VERTEX
  5
1B1D
  8
WHITE
 10
246.62108509000001
 20
117.54511413500001
 30
0.0
 42
0.30243794
  0
VERTEX
  5
1B1E
  8
WHITE
 10
235.4884278925
 20
121.42674128749999
 30
0.0
 42
-0.32728802
  0
VERTEX
  5
1B1F
  8
WHITE
 10
230.71139321499999
 20
123.241233495
 30
0.0
 42
-0.35142417
  0
VERTEX
  5
1B20
  8
WHITE
 10
236.55629508000001
 20
181.0912655125
 30
0.0
 42
-0.41421356
  0
VERTEX
  5
1B21
  8
WHITE
 10
240.95528214250001
 20
181.33369953499999
 30
0.0
 42
-0.41421356
  0
VERTEX
  5
1B22
  8
WHITE
 10
241.19771614749999
 20
176.93471250249999
 30
0.0
 42
0.26803816
  0
VERTEX
  5
1B23
  8
WHITE
 10
230.8486724375
 20
138.02698150750001
 30
0.0
 42
0.10522126
  0
VERTEX
  5
1B24
  8
WHITE
 10
232.16107982
 20
135.4653556925
 30
0.0
 42
0.26806938
  0
VERTEX
  5
1B25
  8
WHITE
 10
248.07127084250001
 20
129.40692802500001
 30
0.0
 42
0.12778716
  0
VERTEX
  5
1B26
  8
WHITE
 10
250.06090108250001
 20
130.28159715000001
 30
0.0
 42
-0.20481879
  0
VERTEX
  5
1B27
  8
WHITE
 10
257.06397261749999
 20
132.1770755325
 30
0.0
 42
-0.20344025
  0
VERTEX
  5
1B28
  8
WHITE
 10
257.17974877749998
 20
132.1074992575
 30
0.0
 42
-0.20344025
  0
VERTEX
  5
1B29
  8
WHITE
 10
257.21013114999988
 20
131.9758862075
 30
0.0
  0
VERTEX
  5
1B2A
  8
WHITE
 10
255.1697828675
 20
120.40449685750001
 30
0.0
 42
0.4142137100000002
  0
VERTEX
  5
1B2B
  8
WHITE
 10
255.30999768250001
 20
120.204249465
 30
0.0
  0
VERTEX
  5
1B2C
  8
WHITE
 10
256.45905735749989
 20
120.0016397775
 30
0.0
 42
0.4142134000000002
  0
VERTEX
  5
1B2D
  8
WHITE
 10
256.65930458000003
 20
120.1418545775
 30
0.0
  0
VERTEX
  5
1B2E
  8
WHITE
 10
258.70060438000002
 20
131.71863831499999
 30
0.0
 42
-0.41462244
  0
VERTEX
  5
1B2F
  8
WHITE
 10
258.90108929749999
 20
131.85881090250001
 30
0.0
 42
-0.21353873
  0
VERTEX
  5
1B30
  8
WHITE
 10
265.13615475500001
 20
127.6234233675
 30
0.0
 42
0.12778712
  0
VERTEX
  5
1B31
  8
WHITE
 10
266.70664040249989
 20
126.12101014
 30
0.0
 42
0.10208136
  0
VERTEX
  5
1B32
  8
WHITE
 10
273.2652400225
 20
124.05192393750001
 30
0.0
  0
VERTEX
  5
1B33
  8
WHITE
 10
273.60967188749999
 20
124.02015557750001
 30
0.0
  0
VERTEX
  5
1B34
  8
WHITE
 10
273.95467827250002
 20
123.995394045
 30
0.0
  0
SEQEND
  5
1B35
  8
WHITE
  0
POLYLINE
  5
506
  8
WHITE
 66
     1
 10
0.0
 20
0.0
 30
0.0
 70
     1
  0
VERTEX
  5
1B36
  8
WHITE
 10
288.52544212999987
 20
31.144201519999999
 30
0.0
 42
0.18356948
  0
VERTEX
  5
1B37
  8
WHITE
 10
299.88103012499988
 20
35.289701377500002
 30
0.0
 42
0.10522127
  0
VERTEX
  5
1B38
  8
WHITE
 10
301.61832048999997
 20
37.584512889999992
 30
0.0
 42
0.26803816
  0
VERTEX
  5
1B39
  8
WHITE
 10
298.18275885000008
 20
77.698240519999999
 30
0.0
 42
-0.41421356
  0
VERTEX
  5
1B3A
  8
WHITE
 10
299.1853861925
 20
81.988298055000001
 30
0.0
 42
-0.41421356
  0
VERTEX
  5
1B3B
  8
WHITE
 10
303.47544309749998
 20
80.985671207500005
 30
0.0
 42
-0.35142417
  0
VERTEX
  5
1B3C
  8
WHITE
 10
299.18599696000001
 20
22.999554509999999
 30
0.0
 42
-0.32728804
  0
VERTEX
  5
1B3D
  8
WHITE
 10
294.166452585
 20
22.042152367500002
 30
0.0
 42
0.3010212
  0
VERTEX
  5
1B3E
  8
WHITE
 10
282.55577608750002
 20
20.122845460000001
 30
0.0
 42
0.3010212
  0
VERTEX
  5
1B3F
  8
WHITE
 10
279.78817706749999
 20
8.6846662049999992
 30
0.0
 42
-0.21610866
  0
VERTEX
  5
1B40
  8
WHITE
 10
279.74352088000001
 20
8.1153889825000007
 30
0.0
 42
-0.21610866
  0
VERTEX
  5
1B41
  8
WHITE
 10
279.28590246999988
 20
7.7738391924999988
 30
0.0
 42
-0.06237111
  0
VERTEX
  5
1B42
  8
WHITE
 10
268.11654611749992
 20
7.772905237499999
 30
0.0
 42
-0.21677492
  0
VERTEX
  5
1B43
  8
WHITE
 10
267.65802249749999
 20
8.1159211399999993
 30
0.0
 42
-0.21677492
  0
VERTEX
  5
1B44
  8
WHITE
 10
267.61532569500002
 20
8.6869559924999997
 30
0.0
 42
0.30243794
  0
VERTEX
  5
1B45
  8
WHITE
 10
264.86929406500002
 20
20.152661179999988
 30
0.0
 42
0.30243794
  0
VERTEX
  5
1B46
  8
WHITE
 10
253.231729465
 20
22.042152057500001
 30
0.0
 42
-0.32728806
  0
VERTEX
  5
1B47
  8
WHITE
 10
248.21218518250001
 20
22.999555239999999
 30
0.0
 42
-0.35142417
  0
VERTEX
  5
1B48
  8
WHITE
 10
243.92273729999999
 20
80.985671797500004
 30
0.0
 42
-0.41421356
  0
VERTEX
  5
1B49
  8
WHITE
 10
248.21279563749999
 20
81.988298789999988
 30
0.0
 42
-0.41421356
  0
VERTEX
  5
1B4A
  8
WHITE
 10
249.21542252250001
 20
77.698240519999999
 30
0.0
 42
0.26803816
  0
VERTEX
  5
1B4B
  8
WHITE
 10
245.779860665
 20
37.584512807499991
 30
0.0
 42
0.10522126
  0
VERTEX
  5
1B4C
  8
WHITE
 10
247.51715104499999
 20
35.2897011425
 30
0.0
 42
0.26806938
  0
VERTEX
  5
1B4D
  8
WHITE
 10
264.23766559500001
 20
32.086089917499997
 30
0.0
 42
0.12778716
  0
VERTEX
  5
1B4E
  8
WHITE
 10
266.045184355
 20
33.292966200000002
 30
0.0
 42
-0.21353872
  0
VERTEX
  5
1B4F
  8
WHITE
 10
272.92099210750001
 20
36.38130100250001
 30
0.0
 42
-0.4146227
  0
VERTEX
  5
1B50
  8
WHITE
 10
273.09409068749989
 20
36.208444027500001
 30
0.0
  0
VERTEX
  5
1B51
  8
WHITE
 10
273.09409068749989
 20
24.453069315
 30
0.0
 42
0.4142135500000001
  0
VERTEX
  5
1B52
  8
WHITE
 10
273.26694781999998
 20
24.280212172500001
 30
0.0
  0
VERTEX
  5
1B53
  8
WHITE
 10
274.433733545
 20
24.280212172500001
 30
0.0
 42
0.41421353
  0
VERTEX
  5
1B54
  8
WHITE
 10
274.60659068749999
 20
24.453069305
 30
0.0
  0
VERTEX
  5
1B55
  8
WHITE
 10
274.60659068749999
 20
36.202966185000001
 30
0.0
 42
-0.20344047
  0
VERTEX
  5
1B56
  8
WHITE
 10
274.65936551999988
 20
36.327303752500001
 30
0.0
 42
-0.20344047
  0
VERTEX
  5
1B57
  8
WHITE
 10
274.7854647675
 20
36.375718775000003
 30
0.0
 42
-0.2048188
  0
VERTEX
  5
1B58
  8
WHITE
 10
281.352997845
 20
33.292966174999997
 30
0.0
 42
0.12778713
  0
VERTEX
  5
1B59
  8
WHITE
 10
283.16051621499997
 20
32.086090065
 30
0.0
 42
0.07031002
  0
VERTEX
  5
1B5A
  8
WHITE
 10
287.83366563999999
 20
31.167318210000001
 30
0.0
  0
VERTEX
  5
1B5B
  8
WHITE
 10
288.17943634749997
 20
31.152242484999999
 30
0.0
  0
VERTEX
  5
1B5C
  8
WHITE
 10
288.52544212999987
 20
31.144201519999999
 30
0.0
  0
SEQEND
  5
1B5D
  8
WHITE
  0
POLYLINE
  5
52F
  8
WHITE
 66
     1
 10
0.0
 20
0.0
 30
0.0
 70
     1
  0
VERTEX
  5
1B5E
  8
WHITE
 10
304.4492491625
 20
202.14130097500001
 30
0.0
 42
0.07521408
  0
VERTEX
  5
1B5F
  8
WHITE
 10
299.444355685
 20
201.20792699
 30
0.0
 42
0.12778715
  0
VERTEX
  5
1B60
  8
WHITE
 10
297.63683731750001
 20
200.00105093249999
 30
0.0
 42
-0.20481881
  0
VERTEX
  5
1B61
  8
WHITE
 10
291.06930392999988
 20
196.91829852000001
 30
0.0
 42
-0.20344024
  0
VERTEX
  5
1B62
  8
WHITE
 10
290.94320488250008
 20
196.96671345999999
 30
0.0
 42
-0.20344024
  0
VERTEX
  5
1B63
  8
WHITE
 10
290.89043015750002
 20
197.09105092249999
 30
0.0
  0
VERTEX
  5
1B64
  8
WHITE
 10
290.89043015750002
 20
208.8409477925
 30
0.0
 42
0.41421354
  0
VERTEX
  5
1B65
  8
WHITE
 10
290.71757301500008
 20
209.013804935
 30
0.0
  0
VERTEX
  5
1B66
  8
WHITE
 10
289.55078729249999
 20
209.013804935
 30
0.0
 42
0.4142135500000001
  0
VERTEX
  5
1B67
  8
WHITE
 10
289.37793015749997
 20
208.8409477925
 30
0.0
  0
VERTEX
  5
1B68
  8
WHITE
 10
289.37793015749997
 20
197.08557307749999
 30
0.0
 42
-0.4146227200000002
  0
VERTEX
  5
1B69
  8
WHITE
 10
289.20483164749987
 20
196.9127171575
 30
0.0
 42
-0.21353873
  0
VERTEX
  5
1B6A
  8
WHITE
 10
282.32902397750001
 20
200.00105160250001
 30
0.0
 42
0.12778714
  0
VERTEX
  5
1B6B
  8
WHITE
 10
280.52150549499999
 20
201.20792778750001
 30
0.0
 42
0.26806937
  0
VERTEX
  5
1B6C
  8
WHITE
 10
263.80099138000003
 20
198.00431682999999
 30
0.0
 42
0.1052213
  0
VERTEX
  5
1B6D
  8
WHITE
 10
262.06370013499998
 20
195.70950429999999
 30
0.0
 42
0.31463565
  0
VERTEX
  5
1B6E
  8
WHITE
 10
269.92213526499989
 20
150.2921843625
 30
0.0
 42
-0.29327265
  0
VERTEX
  5
1B6F
  8
WHITE
 10
270.50719426000001
 20
147.55320758249999
 30
0.0
 42
-0.29327265
  0
VERTEX
  5
1B70
  8
WHITE
 10
268.26095354
 20
145.88027872250001
 30
0.0
 42
-0.10235088
  0
VERTEX
  5
1B71
  8
WHITE
 10
265.566026475
 20
146.244656945
 30
0.0
 42
-0.12098001
  0
VERTEX
  5
1B72
  8
WHITE
 10
264.53106816749988
 20
146.92150982499999
 30
0.0
 42
-0.39378722
  0
VERTEX
  5
1B73
  8
WHITE
 10
264.49602433749999
 20
210.29446215499999
 30
0.0
 42
-0.32728804
  0
VERTEX
  5
1B74
  8
WHITE
 10
269.51556851250001
 20
211.25186503
 30
0.0
 42
0.31007586
  0
VERTEX
  5
1B75
  8
WHITE
 10
280.82519832499997
 20
213.0447743549999
 30
0.0
 42
0.31007586
  0
VERTEX
  5
1B76
  8
WHITE
 10
283.222050835
 20
224.24197706499999
 30
0.0
 42
-0.25019146
  0
VERTEX
  5
1B77
  8
WHITE
 10
283.30318818500001
 20
225.05191832
 30
0.0
 42
-0.25019146
  0
VERTEX
  5
1B78
  8
WHITE
 10
284.02128101
 20
225.43523362249999
 30
0.0
 42
-0.11561609
  0
VERTEX
  5
1B79
  8
WHITE
 10
295.94457930999999
 20
225.43523437249991
 30
0.0
 42
-0.25019141
  0
VERTEX
  5
1B7A
  8
WHITE
 10
296.66267275500002
 20
225.05191894000001
 30
0.0
 42
-0.25019141
  0
VERTEX
  5
1B7B
  8
WHITE
 10
296.74381005999987
 20
224.24197717999999
 30
0.0
 42
0.31007586
  0
VERTEX
  5
1B7C
  8
WHITE
 10
299.14066285500002
 20
213.0447743549999
 30
0.0
 42
0.31007586
  0
VERTEX
  5
1B7D
  8
WHITE
 10
310.45029267000001
 20
211.25186503
 30
0.0
 42
-0.32728804
  0
VERTEX
  5
1B7E
  8
WHITE
 10
315.46983652749992
 20
210.29446186749999
 30
0.0
 42
-0.39378722
  0
VERTEX
  5
1B7F
  8
WHITE
 10
315.43479298250008
 20
146.92150985500001
 30
0.0
 42
-0.12098004
  0
VERTEX
  5
1B80
  8
WHITE
 10
314.39983435999989
 20
146.24465724000001
 30
0.0
 42
-0.10235087
  0
VERTEX
  5
1B81
  8
WHITE
 10
311.7049076225
 20
145.88027861500001
 30
0.0
 42
-0.29327265
  0
VERTEX
  5
1B82
  8
WHITE
 10
309.45866692250002
 20
147.55320758249999
 30
0.0
 42
-0.29327265
  0
VERTEX
  5
1B83
  8
WHITE
 10
310.04372572749998
 20
150.2921845475
 30
0.0
 42
0.31463565
  0
VERTEX
  5
1B84
  8
WHITE
 10
317.90216082500001
 20
195.70950421500001
 30
0.0
 42
0.1052213
  0
VERTEX
  5
1B85
  8
WHITE
 10
316.16486970499989
 20
198.00431677750001
 30
0.0
 42
0.16611435
  0
VERTEX
  5
1B86
  8
WHITE
 10
305.96174908500001
 20
202.12583298249999
 30
0.0
  0
VERTEX
  5
1B87
  8
WHITE
 10
305.58382313499999
 20
202.1423085399999
 30
0.0
  0
VERTEX
  5
1B88
  8
WHITE
 10
305.20567105750001
 20
202.1503793599999
 30
0.0
  0
VERTEX
  5
1B89
  8
WHITE
 10
304.82743301499988
 20
202.15004399
 30
0.0
  0
VERTEX
  5
1B8A
  8
WHITE
 10
304.4492491625
 20
202.14130097500001
 30
0.0
  0
SEQEND
  5
1B8B
  8
WHITE
  0
POLYLINE
  5
55E
  8
WHITE
 66
     1
 10
0.0
 20
0.0
 30
0.0
 70
     1
  0
VERTEX
  5
1B8C
  8
WHITE
 10
303.898715815
 20
233.820466815
 30
0.0
 42
-0.25008219
  0
VERTEX
  5
1B8D
  8
WHITE
 10
281.95458995500002
 20
243.81823561249999
 30
0.0
 42
0.23277943
  0
VERTEX
  5
1B8E
  8
WHITE
 10
276.48285871249999
 20
246.53056789499999
 30
0.0
  0
VERTEX
  5
1B8F
  8
WHITE
 10
266.58487434
 20
246.5581618299999
 30
0.0
 42
-0.21382743
  0
VERTEX
  5
1B90
  8
WHITE
 10
266.45601728999998
 20
246.616340495
 30
0.0
 42
-0.21382743
  0
VERTEX
  5
1B91
  8
WHITE
 10
266.41368587250003
 20
246.751236535
 30
0.0
  0
VERTEX
  5
1B92
  8
WHITE
 10
267.87522067250001
 20
259.16093085
 30
0.0
 42
0.41421357
  0
VERTEX
  5
1B93
  8
WHITE
 10
267.72376843000001
 20
259.352819565
 30
0.0
  0
VERTEX
  5
1B94
  8
WHITE
 10
266.56499118750003
 20
259.48929287250002
 30
0.0
 42
0.41421338
  0
VERTEX
  5
1B95
  8
WHITE
 10
266.37310230000003
 20
259.33784068249997
 30
0.0
  0
VERTEX
  5
1B96
  8
WHITE
 10
264.91304838249999
 20
246.94072866499999
 30
0.0
 42
-0.41579244
  0
VERTEX
  5
1B97
  8
WHITE
 10
264.72023488000002
 20
246.78938690250001
 30
0.0
 42
-0.25792271
  0
VERTEX
  5
1B98
  8
WHITE
 10
258.89150723500001
 20
251.016600665
 30
0.0
 42
-0.17707943
  0
VERTEX
  5
1B99
  8
WHITE
 10
261.76495700499999
 20
267.61833784999999
 30
0.0
 42
0.19589659
  0
VERTEX
  5
1B9A
  8
WHITE
 10
261.94054032999998
 20
268.91089315999989
 30
0.0
 42
-0.31374658
  0
VERTEX
  5
1B9B
  8
WHITE
 10
264.96750150999998
 20
277.04730194000001
 30
0.0
 42
-0.31374658
  0
VERTEX
  5
1B9C
  8
WHITE
 10
273.64871579499999
 20
277.03475267250002
 30
0.0
  0
VERTEX
  5
1B9D
  8
WHITE
 10
283.34697964999992
 20
270.56924368249997
 30
0.0
 42
0.14806875
  0
VERTEX
  5
1B9E
  8
WHITE
 10
290.53827175750001
 20
268.39189552750003
 30
0.0
  0
VERTEX
  5
1B9F
  8
WHITE
 10
303.12085866000001
 20
268.39189552750003
 30
0.0
 42
-0.4142135500000001
  0
VERTEX
  5
1BA0
  8
WHITE
 10
303.29371579500008
 20
268.21903838499998
 30
0.0
  0
VERTEX
  5
1BA1
  8
WHITE
 10
303.29371579500008
 20
259.9218955275
 30
0.0
 42
0.41421356
  0
VERTEX
  5
1BA2
  8
WHITE
 10
303.46657293750002
 20
259.74903838500001
 30
0.0
  0
VERTEX
  5
1BA3
  8
WHITE
 10
304.63335864999988
 20
259.74903838500001
 30
0.0
 42
0.41421356
  0
VERTEX
  5
1BA4
  8
WHITE
 10
304.80621579500001
 20
259.9218955275
 30
0.0
  0
VERTEX
  5
1BA5
  8
WHITE
 10
304.80621579500001
 20
268.21903838499998
 30
0.0
 42
-0.4142135500000001
  0
VERTEX
  5
1BA6
  8
WHITE
 10
304.97907293750001
 20
268.39189552750003
 30
0.0
  0
VERTEX
  5
1BA7
  8
WHITE
 10
317.25915982999987
 20
268.39189552750003
 30
0.0
 42
0.14806874
  0
VERTEX
  5
1BA8
  8
WHITE
 10
324.45045174749993
 20
270.56924355749999
 30
0.0
  0
VERTEX
  5
1BA9
  8
WHITE
 10
334.14871554249987
 20
277.03475236999998
 30
0.0
 42
-0.31374659
  0
VERTEX
  5
1BAA
  8
WHITE
 10
342.82992991499992
 20
277.04730205250002
 30
0.0
 42
-0.31374659
  0
VERTEX
  5
1BAB
  8
WHITE
 10
345.85689084500001
 20
268.91089326249988
 30
0.0
 42
0.19589659
  0
VERTEX
  5
1BAC
  8
WHITE
 10
346.03247438
 20
267.61833774000002
 30
0.0
 42
-0.17707943
  0
VERTEX
  5
1BAD
  8
WHITE
 10
348.90592378999997
 20
251.01660087499999
 30
0.0
 42
-0.26904869
  0
VERTEX
  5
1BAE
  8
WHITE
 10
342.7690718325
 20
246.75790782999999
 30
0.0
 42
-0.40364236
  0
VERTEX
  5
1BAF
  8
WHITE
 10
342.58341404499998
 20
246.90997989249999
 30
0.0
  0
VERTEX
  5
1BB0
  8
WHITE
 10
341.12390599499997
 20
259.3024585
 30
0.0
 42
0.41421354
  0
VERTEX
  5
1BB1
  8
WHITE
 10
340.93201728000008
 20
259.4539107425
 30
0.0
  0
VERTEX
  5
1BB2
  8
WHITE
 10
339.77323982500002
 20
259.31743758999988
 30
0.0
 42
0.41421329
  0
VERTEX
  5
1BB3
  8
WHITE
 10
339.62178762000002
 20
259.12554866750003
 30
0.0
  0
VERTEX
  5
1BB4
  8
WHITE
 10
341.0792554549999
 20
246.75038772749991
 30
0.0
 42
-0.21382719
  0
VERTEX
  5
1BB5
  8
WHITE
 10
341.03692391999999
 20
246.61549184750001
 30
0.0
 42
-0.21382719
  0
VERTEX
  5
1BB6
  8
WHITE
 10
340.90806705749998
 20
246.5573132925
 30
0.0
  0
VERTEX
  5
1BB7
  8
WHITE
 10
331.31457254999998
 20
246.53056797249999
 30
0.0
 42
0.23277942
  0
VERTEX
  5
1BB8
  8
WHITE
 10
325.84284086249988
 20
243.81823618499999
 30
0.0
 42
-0.24291473
  0
VERTEX
  5
1BB9
  8
WHITE
 10
304.59014426999988
 20
233.78649386000001
 30
0.0
  0
VERTEX
  5
1BBA
  8
WHITE
 10
304.41706029250008
 20
233.79729340750001
 30
0.0
  0
VERTEX
  5
1BBB
  8
WHITE
 10
304.24404915500008
 20
233.81196248000001
 30
0.0
  0
VERTEX
  5
1BBC
  8
WHITE
 10
304.07122845999999
 20
233.82239048249991
 30
0.0
  0
VERTEX
  5
1BBD
  8
WHITE
 10
303.98492628000008
 20
233.82347951999989
 30
0.0
  0
VERTEX
  5
1BBE
  8
WHITE
 10
303.898715815
 20
233.820466815
 30
0.0
  0
SEQEND
  5
1BBF
  8
WHITE
  0
POLYLINE
  5
593
  8
WHITE
 66
     1
 10
0.0
 20
0.0
 30
0.0
 70
     1
  0
VERTEX
  5
1BC0
  8
WHITE
 10
316.217004385
 20
97.245692454999997
 30
0.0
 42
0.10344394
  0
VERTEX
  5
1BC1
  8
WHITE
 10
309.30722559999992
 20
96.353814865000004
 30
0.0
 42
0.12778714
  0
VERTEX
  5
1BC2
  8
WHITE
 10
307.49970709749988
 20
95.146938972499996
 30
0.0
 42
-0.21353871
  0
VERTEX
  5
1BC3
  8
WHITE
 10
300.62389949250002
 20
92.058604339999988
 30
0.0
 42
-0.4146227200000002
  0
VERTEX
  5
1BC4
  8
WHITE
 10
300.450800915
 20
92.231461315000004
 30
0.0
  0
VERTEX
  5
1BC5
  8
WHITE
 10
300.450800915
 20
103.986835165
 30
0.0
 42
0.41421354
  0
VERTEX
  5
1BC6
  8
WHITE
 10
300.27794377250001
 20
104.15969230749999
 30
0.0
  0
VERTEX
  5
1BC7
  8
WHITE
 10
299.11115805750001
 20
104.15969230749999
 30
0.0
 42
0.41421356
  0
VERTEX
  5
1BC8
  8
WHITE
 10
298.9383009149999
 20
103.986835165
 30
0.0
  0
VERTEX
  5
1BC9
  8
WHITE
 10
298.9383009149999
 20
92.236939157500004
 30
0.0
 42
-0.20344047
  0
VERTEX
  5
1BCA
  8
WHITE
 10
298.88552608250001
 20
92.112601589999997
 30
0.0
 42
-0.20344047
  0
VERTEX
  5
1BCB
  8
WHITE
 10
298.75942683250008
 20
92.064186567500016
 30
0.0
 42
-0.2048188
  0
VERTEX
  5
1BCC
  8
WHITE
 10
292.19189372
 20
95.146939142500017
 30
0.0
 42
0.12778711
  0
VERTEX
  5
1BCD
  8
WHITE
 10
290.38437566750008
 20
96.353815060000017
 30
0.0
 42
0.26806938
  0
VERTEX
  5
1BCE
  8
WHITE
 10
273.66386127499999
 20
93.150204200000005
 30
0.0
 42
0.10522126
  0
VERTEX
  5
1BCF
  8
WHITE
 10
271.92657089250002
 20
90.855392534999993
 30
0.0
 42
0.26803816
  0
VERTEX
  5
1BD0
  8
WHITE
 10
275.36213212500002
 20
50.741664434999997
 30
0.0
 42
-0.41421356
  0
VERTEX
  5
1BD1
  8
WHITE
 10
274.35950541
 20
46.451607287500003
 30
0.0
 42
-0.41421356
  0
VERTEX
  5
1BD2
  8
WHITE
 10
270.06944850500003
 20
47.454234135
 30
0.0
 42
-0.35142417
  0
VERTEX
  5
1BD3
  8
WHITE
 10
274.35889464000002
 20
105.4403508325
 30
0.0
 42
-0.32728804
  0
VERTEX
  5
1BD4
  8
WHITE
 10
279.37843896499999
 20
106.39775295
 30
0.0
 42
0.3010212
  0
VERTEX
  5
1BD5
  8
WHITE
 10
290.98911551499992
 20
108.3170598825
 30
0.0
 42
0.3010212
  0
VERTEX
  5
1BD6
  8
WHITE
 10
293.75671416500001
 20
119.75523900500001
 30
0.0
 42
-0.21610866
  0
VERTEX
  5
1BD7
  8
WHITE
 10
293.80137072000008
 20
120.32451636
 30
0.0
 42
-0.21610866
  0
VERTEX
  5
1BD8
  8
WHITE
 10
294.25898913249989
 20
120.66606615249999
 30
0.0
 42
-0.06237111
  0
VERTEX
  5
1BD9
  8
WHITE
 10
305.42834621499998
 20
120.666999945
 30
0.0
 42
-0.21677477
  0
VERTEX
  5
1BDA
  8
WHITE
 10
305.88686928499988
 20
120.323983875
 30
0.0
 42
-0.21677477
  0
VERTEX
  5
1BDB
  8
WHITE
 10
305.92956586249989
 20
119.75294936
 30
0.0
 42
0.30243794
  0
VERTEX
  5
1BDC
  8
WHITE
 10
308.67559753500001
 20
108.2872441625
 30
0.0
 42
0.30243794
  0
VERTEX
  5
1BDD
  8
WHITE
 10
320.31316221999992
 20
106.39775310500001
 30
0.0
 42
-0.32728806
  0
VERTEX
  5
1BDE
  8
WHITE
 10
325.33270642000002
 20
105.44035010499999
 30
0.0
 42
-0.35142417
  0
VERTEX
  5
1BDF
  8
WHITE
 10
329.62215430250001
 20
47.454233547500003
 30
0.0
 42
-0.41421356
  0
VERTEX
  5
1BE0
  8
WHITE
 10
325.33209596500001
 20
46.451606554999991
 30
0.0
 42
-0.41421356
  0
VERTEX
  5
1BE1
  8
WHITE
 10
324.32946897250008
 20
50.741664892499998
 30
0.0
 42
0.26803816
  0
VERTEX
  5
1BE2
  8
WHITE
 10
327.7650307175
 20
90.855392452499999
 30
0.0
 42
0.10522126
  0
VERTEX
  5
1BE3
  8
WHITE
 10
326.02774051
 20
93.150204222499994
 30
0.0
 42
0.14974965
  0
VERTEX
  5
1BE4
  8
WHITE
 10
316.90721169
 20
97.177717767499999
 30
0.0
  0
VERTEX
  5
1BE5
  8
WHITE
 10
316.56245434999988
 20
97.215221532499996
 30
0.0
  0
VERTEX
  5
1BE6
  8
WHITE
 10
316.217004385
 20
97.245692454999997
 30
0.0
  0
SEQEND
  5
1BE7
  8
WHITE
  0
POLYLINE
  5
5BC
  8
WHITE
 66
     1
 10
0.0
 20
0.0
 30
0.0
 70
     1
  0
VERTEX
  5
1BE8
  8
WHITE
 10
282.35091241999999
 20
177.17969339499999
 30
0.0
 42
0.07017468
  0
VERTEX
  5
1BE9
  8
WHITE
 10
280.41758716499999
 20
175.98495264249999
 30
0.0
  0
VERTEX
  5
1BEA
  8
WHITE
 10
277.17123920749998
 20
175.43974498750001
 30
0.0
 42
-0.22062718
  0
VERTEX
  5
1BEB
  8
WHITE
 10
277.0309612675
 20
175.478251925
 30
0.0
 42
-0.22062718
  0
VERTEX
  5
1BEC
  8
WHITE
 10
276.96975266499999
 20
175.6102147775
 30
0.0
  0
VERTEX
  5
1BED
  8
WHITE
 10
276.96975266499999
 20
180.97712742749999
 30
0.0
 42
0.41421354
  0
VERTEX
  5
1BEE
  8
WHITE
 10
276.79689552249999
 20
181.14998457249999
 30
0.0
  0
VERTEX
  5
1BEF
  8
WHITE
 10
275.63010980749988
 20
181.14998457249999
 30
0.0
 42
0.41421354
  0
VERTEX
  5
1BF0
  8
WHITE
 10
275.457252665
 20
180.97712742749999
 30
0.0
  0
VERTEX
  5
1BF1
  8
WHITE
 10
275.457252665
 20
175.7631726075
 30
0.0
 42
-0.22062743
  0
VERTEX
  5
1BF2
  8
WHITE
 10
275.36543958999988
 20
175.56522817749999
 30
0.0
 42
-0.22062743
  0
VERTEX
  5
1BF3
  8
WHITE
 10
275.15502232249997
 20
175.50746762750001
 30
0.0
  0
VERTEX
  5
1BF4
  8
WHITE
 10
272.31191697000003
 20
175.98495227250001
 30
0.0
 42
0.16487631
  0
VERTEX
  5
1BF5
  8
WHITE
 10
267.43547352749999
 20
177.85862145499999
 30
0.0
 42
-0.26802936
  0
VERTEX
  5
1BF6
  8
WHITE
 10
267.21625715499988
 20
177.9972144825
 30
0.0
 42
-0.31732903
  0
VERTEX
  5
1BF7
  8
WHITE
 10
267.81855609000002
 20
182.55862981249999
 30
0.0
 42
0.2555456
  0
VERTEX
  5
1BF8
  8
WHITE
 10
272.40002242499997
 20
185.96285607999999
 30
0.0
  0
VERTEX
  5
1BF9
  8
WHITE
 10
272.99499222750001
 20
190.83236399
 30
0.0
 42
-0.31412556
  0
VERTEX
  5
1BFA
  8
WHITE
 10
273.19281017249989
 20
191.0532702875
 30
0.0
 42
-0.11639891
  0
VERTEX
  5
1BFB
  8
WHITE
 10
279.53669540499999
 20
191.05327133750001
 30
0.0
 42
-0.31412478
  0
VERTEX
  5
1BFC
  8
WHITE
 10
279.73451277999999
 20
190.83236395
 30
0.0
  0
VERTEX
  5
1BFD
  8
WHITE
 10
280.32948290500002
 20
185.96285607999999
 30
0.0
 42
0.25554558
  0
VERTEX
  5
1BFE
  8
WHITE
 10
284.9109487275
 20
182.55862967499999
 30
0.0
 42
-0.317329
  0
VERTEX
  5
1BFF
  8
WHITE
 10
285.51324825500001
 20
177.997213985
 30
0.0
 42
-0.26802984
  0
VERTEX
  5
1C00
  8
WHITE
 10
285.2940309375
 20
177.85862141999999
 30
0.0
 42
0.07221572
  0
VERTEX
  5
1C01
  8
WHITE
 10
282.99546473750001
 20
177.4303579075
 30
0.0
  0
VERTEX
  5
1C02
  8
WHITE
 10
282.670524145
 20
177.311876915
 30
0.0
  0
VERTEX
  5
1C03
  8
WHITE
 10
282.35091241999999
 20
177.17969339499999
 30
0.0
  0
SEQEND
  5
1C04
  8
WHITE
  0
POLYLINE
  5
5DA
  8
WHITE
 66
     1
 10
0.0
 20
0.0
 30
0.0
 70
     1
  0
VERTEX
  5
1C05
  8
WHITE
 10
314.3284591675
 20
297.76557774249989
 30
0.0
 42
0.10185943
  0
VERTEX
  5
1C06
  8
WHITE
 10
304.29974581750008
 20
295.77242658249997
 30
0.0
 42
-0.25513957
  0
VERTEX
  5
1C07
  8
WHITE
 10
300.23073341000008
 20
291.98283807249987
 30
0.0
 42
-0.25513957
  0
VERTEX
  5
1C08
  8
WHITE
 10
294.84236322499987
 20
293.35517604249998
 30
0.0
 42
-0.07964345
  0
VERTEX
  5
1C09
  8
WHITE
 10
289.53146466250001
 20
289.050971925
 30
0.0
 42
-0.31302743
  0
VERTEX
  5
1C0A
  8
WHITE
 10
285.421441845
 20
282.76989316999999
 30
0.0
 42
-0.07010367
  0
VERTEX
  5
1C0B
  8
WHITE
 10
284.95345990499999
 20
282.65305609500001
 30
0.0
 42
-0.22940094
  0
VERTEX
  5
1C0C
  8
WHITE
 10
272.17723774749999
 20
287.2634808775
 30
0.0
 42
-0.22940094
  0
VERTEX
  5
1C0D
  8
WHITE
 10
267.87260275
 20
300.14594886499992
 30
0.0
  0
VERTEX
  5
1C0E
  8
WHITE
 10
278.07117418000001
 20
300.14594886499992
 30
0.0
 42
0.41421335
  0
VERTEX
  5
1C0F
  8
WHITE
 10
278.24403132249989
 20
300.31880589000002
 30
0.0
  0
VERTEX
  5
1C10
  8
WHITE
 10
278.24403132249989
 20
301.48559172249998
 30
0.0
 42
0.41421356
  0
VERTEX
  5
1C11
  8
WHITE
 10
278.07117418000001
 20
301.65844886500008
 30
0.0
  0
VERTEX
  5
1C12
  8
WHITE
 10
268.07726733750002
 20
301.65844886500008
 30
0.0
 42
-0.35212876
  0
VERTEX
  5
1C13
  8
WHITE
 10
267.90844610250002
 20
301.79417135499989
 30
0.0
 42
-0.25991919
  0
VERTEX
  5
1C14
  8
WHITE
 10
272.86864988999997
 20
318.29151544249987
 30
0.0
 42
0.24509471
  0
VERTEX
  5
1C15
  8
WHITE
 10
277.16568710249999
 20
323.52832270499999
 30
0.0
 42
-0.35952994
  0
VERTEX
  5
1C16
  8
WHITE
 10
289.49631647749999
 20
330.4483906625
 30
0.0
 42
0.19380234
  0
VERTEX
  5
1C17
  8
WHITE
 10
288.00169498749989
 20
312.21307711750001
 30
0.0
 42
0.28963852
  0
VERTEX
  5
1C18
  8
WHITE
 10
289.49847032000008
 20
310.59611177750008
 30
0.0
 42
-0.2079178
  0
VERTEX
  5
1C19
  8
WHITE
 10
292.85864077000002
 20
311.29445084499997
 30
0.0
 42
-0.2079178
  0
VERTEX
  5
1C1A
  8
WHITE
 10
295.66163045749988
 20
309.31413001750002
 30
0.0
 42
-0.24530176
  0
VERTEX
  5
1C1B
  8
WHITE
 10
306.60341561749999
 20
308.98820439999997
 30
0.0
 42
0.21234808
  0
VERTEX
  5
1C1C
  8
WHITE
 10
319.8736778
 20
310.25889955999997
 30
0.0
 42
0.20922341
  0
VERTEX
  5
1C1D
  8
WHITE
 10
339.11411430499999
 20
308.62366937249999
 30
0.0
 42
-0.2103825
  0
VERTEX
  5
1C1E
  8
WHITE
 10
343.08109954499997
 20
307.07945516500001
 30
0.0
 42
-0.2103825
  0
VERTEX
  5
1C1F
  8
WHITE
 10
344.62104391499997
 20
303.11081046750002
 30
0.0
 42
0.20429887
  0
VERTEX
  5
1C20
  8
WHITE
 10
378.27681495000002
 20
298.13969222499998
 30
0.0
 42
-0.16795392
  0
VERTEX
  5
1C21
  8
WHITE
 10
383.46192500500001
 20
301.92610043000002
 30
0.0
 42
-0.22768658
  0
VERTEX
  5
1C22
  8
WHITE
 10
388.06490308000002
 20
309.04129273249998
 30
0.0
 42
-0.21212155
  0
VERTEX
  5
1C23
  8
WHITE
 10
389.21564806499993
 20
310.73538606999989
 30
0.0
 42
-0.30147343
  0
VERTEX
  5
1C24
  8
WHITE
 10
392.48749628749999
 20
318.08551684499997
 30
0.0
 42
0.21942244
  0
VERTEX
  5
1C25
  8
WHITE
 10
393.09448276500001
 20
315.04731847250008
 30
0.0
  0
VERTEX
  5
1C26
  8
WHITE
 10
393.094482895
 20
299.45123427750002
 30
0.0
 42
0.22978939
  0
VERTEX
  5
1C27
  8
WHITE
 10
393.09448227749988
 20
293.27356550000002
 30
0.0
 42
-0.33149935
  0
VERTEX
  5
1C28
  8
WHITE
 10
387.23252840499993
 20
288.67866317750008
 30
0.0
 42
-0.2295529
  0
VERTEX
  5
1C29
  8
WHITE
 10
380.16664526
 20
285.80131062250001
 30
0.0
 42
-0.243967
  0
VERTEX
  5
1C2A
  8
WHITE
 10
378.91517796250002
 20
282.79355042999998
 30
0.0
 42
-0.243967
  0
VERTEX
  5
1C2B
  8
WHITE
 10
375.73549779500001
 20
282.08473041249988
 30
0.0
  0
VERTEX
  5
1C2C
  8
WHITE
 10
354.20253411499999
 20
287.5134875
 30
0.0
 42
0.27281828
  0
VERTEX
  5
1C2D
  8
WHITE
 10
343.53782450249997
 20
287.11061222749998
 30
0.0
 42
-0.32026933
  0
VERTEX
  5
1C2E
  8
WHITE
 10
336.89753436000001
 20
291.94511320499993
 30
0.0
 42
-0.30919934
  0
VERTEX
  5
1C2F
  8
WHITE
 10
328.44625623749988
 20
293.35517584500002
 30
0.0
 42
0.14210874
  0
VERTEX
  5
1C30
  8
WHITE
 10
315.01980997750002
 20
297.7514268475
 30
0.0
  0
VERTEX
  5
1C31
  8
WHITE
 10
314.67418281750008
 20
297.76085918500002
 30
0.0
  0
VERTEX
  5
1C32
  8
WHITE
 10
314.3284591675
 20
297.76557774249989
 30
0.0
  0
SEQEND
  5
1C33
  8
WHITE
  0
POLYLINE
  5
60A
  8
WHITE
 66
     1
 10
0.0
 20
0.0
 30
0.0
 70
     1
  0
VERTEX
  5
1C34
  8
WHITE
 10
317.74956312500001
 20
11.9952096075
 30
0.0
 42
0.0792789
  0
VERTEX
  5
1C35
  8
WHITE
 10
315.54432061249997
 20
10.6870062075
 30
0.0
  0
VERTEX
  5
1C36
  8
WHITE
 10
312.29797228000001
 20
10.141798635000001
 30
0.0
 42
-0.22062724
  0
VERTEX
  5
1C37
  8
WHITE
 10
312.15769429749997
 20
10.1803057475
 30
0.0
 42
-0.22062724
  0
VERTEX
  5
1C38
  8
WHITE
 10
312.09648567250008
 20
10.3122686225
 30
0.0
  0
VERTEX
  5
1C39
  8
WHITE
 10
312.09648567250008
 20
15.679181272499999
 30
0.0
 42
0.41421356
  0
VERTEX
  5
1C3A
  8
WHITE
 10
311.92362852999997
 20
15.852038415000001
 30
0.0
  0
VERTEX
  5
1C3B
  8
WHITE
 10
310.75684281500008
 20
15.852038415000001
 30
0.0
 42
0.4142135500000001
  0
VERTEX
  5
1C3C
  8
WHITE
 10
310.58398567249998
 20
15.679181272499999
 30
0.0
  0
VERTEX
  5
1C3D
  8
WHITE
 10
310.58398567249998
 20
10.3630722
 30
0.0
 42
-0.22062725
  0
VERTEX
  5
1C3E
  8
WHITE
 10
310.52277704250008
 20
10.2311093225
 30
0.0
 42
-0.22062725
  0
VERTEX
  5
1C3F
  8
WHITE
 10
310.38249906499999
 20
10.192602215000001
 30
0.0
  0
VERTEX
  5
1C40
  8
WHITE
 10
307.43865030749993
 20
10.687005622499999
 30
0.0
 42
0.16487633
  0
VERTEX
  5
1C41
  8
WHITE
 10
302.56220653499997
 20
12.5606752975
 30
0.0
 42
-0.26802936
  0
VERTEX
  5
1C42
  8
WHITE
 10
302.34298989749988
 20
12.699268184999999
 30
0.0
 42
-0.31732903
  0
VERTEX
  5
1C43
  8
WHITE
 10
302.94528909749999
 20
17.260683655000001
 30
0.0
 42
0.25554561
  0
VERTEX
  5
1C44
  8
WHITE
 10
307.52675556249989
 20
20.664910205000002
 30
0.0
  0
VERTEX
  5
1C45
  8
WHITE
 10
308.12172523499999
 20
25.534417832500001
 30
0.0
 42
-0.31412556
  0
VERTEX
  5
1C46
  8
WHITE
 10
308.31954317999998
 20
25.755324130000002
 30
0.0
 42
-0.11639891
  0
VERTEX
  5
1C47
  8
WHITE
 10
314.66342816500008
 20
25.755324130000002
 30
0.0
 42
-0.31412478
  0
VERTEX
  5
1C48
  8
WHITE
 10
314.8612452575
 20
25.534417730000001
 30
0.0
  0
VERTEX
  5
1C49
  8
WHITE
 10
315.45621575000001
 20
20.664910214999999
 30
0.0
 42
0.25554557
  0
VERTEX
  5
1C4A
  8
WHITE
 10
320.03768142500002
 20
17.26068377
 30
0.0
 42
-0.31732903
  0
VERTEX
  5
1C4B
  8
WHITE
 10
320.63998032000001
 20
12.699268325
 30
0.0
 42
-0.26802984
  0
VERTEX
  5
1C4C
  8
WHITE
 10
320.42076393500008
 20
12.5606755175
 30
0.0
 42
0.06298794
  0
VERTEX
  5
1C4D
  8
WHITE
 10
318.40688687250008
 20
12.2236103175
 30
0.0
  0
VERTEX
  5
1C4E
  8
WHITE
 10
318.07578211750001
 20
12.116440432499999
 30
0.0
  0
VERTEX
  5
1C4F
  8
WHITE
 10
317.74956312500001
 20
11.9952096075
 30
0.0
  0
SEQEND
  5
1C50
  8
WHITE
  0
POLYLINE
  5
628
  8
WHITE
 66
     1
 10
0.0
 20
0.0
 30
0.0
 70
     1
  0
VERTEX
  5
1C51
  8
WHITE
 10
333.24596031999999
 20
16.407612270000001
 30
0.0
 42
-0.09875467
  0
VERTEX
  5
1C52
  8
WHITE
 10
330.59373005999998
 20
18.4251828475
 30
0.0
 42
0.29483253
  0
VERTEX
  5
1C53
  8
WHITE
 10
326.18235392249989
 20
21.410143730000001
 30
0.0
 42
-0.23057497
  0
VERTEX
  5
1C54
  8
WHITE
 10
325.50915091000002
 20
21.756093132499991
 30
0.0
 42
-0.23057497
  0
VERTEX
  5
1C55
  8
WHITE
 10
325.36646838000001
 20
22.499412822499998
 30
0.0
  0
VERTEX
  5
1C56
  8
WHITE
 10
326.22603803250001
 20
25.6846391875
 30
0.0
 42
-0.23753883
  0
VERTEX
  5
1C57
  8
WHITE
 10
327.26283050749998
 20
26.843137372499999
 30
0.0
  0
VERTEX
  5
1C58
  8
WHITE
 10
331.44129335500008
 20
28.4847433075
 30
0.0
 42
0.30836372
  0
VERTEX
  5
1C59
  8
WHITE
 10
333.36015533749998
 20
31.300251022499999
 30
0.0
  0
VERTEX
  5
1C5A
  8
WHITE
 10
333.36015533749998
 20
34.588675799999997
 30
0.0
 42
-0.33051226
  0
VERTEX
  5
1C5B
  8
WHITE
 10
333.97402019499992
 20
35.415887157500009
 30
0.0
 42
-0.14812868
  0
VERTEX
  5
1C5C
  8
WHITE
 10
341.39307050249988
 20
35.414699145
 30
0.0
 42
-0.32879588
  0
VERTEX
  5
1C5D
  8
WHITE
 10
342.00665544499992
 20
34.592642872500001
 30
0.0
  0
VERTEX
  5
1C5E
  8
WHITE
 10
342.02614768000001
 20
31.273418407499999
 30
0.0
 42
0.30675672
  0
VERTEX
  5
1C5F
  8
WHITE
 10
343.94495800250002
 20
28.475675145
 30
0.0
  0
VERTEX
  5
1C60
  8
WHITE
 10
348.10033712749993
 20
26.843137160000001
 30
0.0
 42
-0.2375388
  0
VERTEX
  5
1C61
  8
WHITE
 10
349.13713013
 20
25.684639292500002
 30
0.0
  0
VERTEX
  5
1C62
  8
WHITE
 10
349.99670090500001
 20
22.499413212499999
 30
0.0
 42
-0.23057497
  0
VERTEX
  5
1C63
  8
WHITE
 10
349.85401828750008
 20
21.756092097500002
 30
0.0
 42
-0.23057497
  0
VERTEX
  5
1C64
  8
WHITE
 10
349.18081389999998
 20
21.410143457499991
 30
0.0
 42
0.29483253
  0
VERTEX
  5
1C65
  8
WHITE
 10
344.76943684000008
 20
18.425183404999999
 30
0.0
 42
-0.21270905
  0
VERTEX
  5
1C66
  8
WHITE
 10
338.46097046249997
 20
15.547101845
 30
0.0
 42
-0.4168074500000002
  0
VERTEX
  5
1C67
  8
WHITE
 10
338.28658390750002
 20
15.7199522225
 30
0.0
  0
VERTEX
  5
1C68
  8
WHITE
 10
338.28658390750002
 20
22.771729372500001
 30
0.0
 42
0.4142135500000001
  0
VERTEX
  5
1C69
  8
WHITE
 10
338.11372676500008
 20
22.944586515000001
 30
0.0
  0
VERTEX
  5
1C6A
  8
WHITE
 10
336.94694104000001
 20
22.944586515000001
 30
0.0
 42
0.41421354
  0
VERTEX
  5
1C6B
  8
WHITE
 10
336.77408390750008
 20
22.771729372500001
 30
0.0
  0
VERTEX
  5
1C6C
  8
WHITE
 10
336.77408304499988
 20
15.728114535
 30
0.0
 42
-0.20478082
  0
VERTEX
  5
1C6D
  8
WHITE
 10
336.72066692999988
 20
15.603161182499999
 30
0.0
 42
-0.20478082
  0
VERTEX
  5
1C6E
  8
WHITE
 10
336.59343191999989
 20
15.5554340475
 30
0.0
 42
-0.08195606
  0
VERTEX
  5
1C6F
  8
WHITE
 10
333.87971123749998
 20
16.130033730000001
 30
0.0
  0
VERTEX
  5
1C70
  8
WHITE
 10
333.56001642749999
 20
16.262386055
 30
0.0
  0
VERTEX
  5
1C71
  8
WHITE
 10
333.24596031999999
 20
16.407612270000001
 30
0.0
  0
SEQEND
  5
1C72
  8
WHITE
  0
POLYLINE
  5
64B
  8
WHITE
 66
     1
 10
0.0
 20
0.0
 30
0.0
 70
     1
  0
VERTEX
  5
1C73
  8
WHITE
 10
346.24221975249998
 20
145.040336865
 30
0.0
 42
0.28713268
  0
VERTEX
  5
1C74
  8
WHITE
 10
334.19143996499997
 20
137.32367703
 30
0.0
 42
-0.24532039
  0
VERTEX
  5
1C75
  8
WHITE
 10
334.06384446750002
 20
137.2271521525
 30
0.0
 42
-0.24532039
  0
VERTEX
  5
1C76
  8
WHITE
 10
333.91170588249997
 20
137.27666532500001
 30
0.0
 42
-0.21472623
  0
VERTEX
  5
1C77
  8
WHITE
 10
332.95465495000002
 20
139.88239612250001
 30
0.0
  0
VERTEX
  5
1C78
  8
WHITE
 10
334.04903945000001
 20
149.9380726
 30
0.0
 42
-0.21694583
  0
VERTEX
  5
1C79
  8
WHITE
 10
334.41465553500001
 20
150.55403547750001
 30
0.0
 42
-0.2761749
  0
VERTEX
  5
1C7A
  8
WHITE
 10
353.65672959749998
 20
151.882552425
 30
0.0
 42
0.23920166
  0
VERTEX
  5
1C7B
  8
WHITE
 10
356.64088458499992
 20
152.82286164999999
 30
0.0
 42
0.23920166
  0
VERTEX
  5
1C7C
  8
WHITE
 10
357.64403937750001
 20
155.78648140749999
 30
0.0
  0
VERTEX
  5
1C7D
  8
WHITE
 10
356.67636177000009
 20
162.49794346749999
 30
0.0
 42
-0.21758846
  0
VERTEX
  5
1C7E
  8
WHITE
 10
356.83807726250001
 20
163.04930074250001
 30
0.0
 42
-0.21758846
  0
VERTEX
  5
1C7F
  8
WHITE
 10
357.36071363000002
 20
163.28804322249999
 30
0.0
  0
VERTEX
  5
1C80
  8
WHITE
 10
366.13560165000001
 20
163.28804322249999
 30
0.0
 42
-0.21758829
  0
VERTEX
  5
1C81
  8
WHITE
 10
366.65823743750002
 20
163.0493004125
 30
0.0
 42
-0.21758829
  0
VERTEX
  5
1C82
  8
WHITE
 10
366.81995258749993
 20
162.4979434725
 30
0.0
  0
VERTEX
  5
1C83
  8
WHITE
 10
365.85227583
 20
155.786481415
 30
0.0
 42
0.23920166
  0
VERTEX
  5
1C84
  8
WHITE
 10
366.85543069750003
 20
152.82286164999999
 30
0.0
 42
0.23920166
  0
VERTEX
  5
1C85
  8
WHITE
 10
369.83958568499992
 20
151.882552425
 30
0.0
 42
-0.2761749
  0
VERTEX
  5
1C86
  8
WHITE
 10
389.0816596075
 20
150.5540352875
 30
0.0
 42
-0.21694583
  0
VERTEX
  5
1C87
  8
WHITE
 10
389.44727565749992
 20
149.93807258499999
 30
0.0
  0
VERTEX
  5
1C88
  8
WHITE
 10
390.5416602775
 20
139.8823961025
 30
0.0
 42
-0.21472623
  0
VERTEX
  5
1C89
  8
WHITE
 10
389.58460929500001
 20
137.27666562499999
 30
0.0
 42
-0.2453205
  0
VERTEX
  5
1C8A
  8
WHITE
 10
389.43247088499987
 20
137.22715214249999
 30
0.0
 42
-0.2453205
  0
VERTEX
  5
1C8B
  8
WHITE
 10
389.30487507250001
 20
137.32367691749999
 30
0.0
 42
0.21742095
  0
VERTEX
  5
1C8C
  8
WHITE
 10
380.7434079775
 20
144.54370407499999
 30
0.0
 42
0.21742095
  0
VERTEX
  5
1C8D
  8
WHITE
 10
369.67953776000002
 20
142.80638160250001
 30
0.0
 42
0.12008202
  0
VERTEX
  5
1C8E
  8
WHITE
 10
368.56630833000003
 20
141.60623459249999
 30
0.0
 42
-0.2835461
  0
VERTEX
  5
1C8F
  8
WHITE
 10
362.51854857749993
 20
138.22825738
 30
0.0
 42
-0.40161526
  0
VERTEX
  5
1C90
  8
WHITE
 10
362.35315720749992
 20
138.40095336499999
 30
0.0
  0
VERTEX
  5
1C91
  8
WHITE
 10
362.35315720749992
 20
146.69375750750001
 30
0.0
 42
0.4142131700000001
  0
VERTEX
  5
1C92
  8
WHITE
 10
362.18030018249999
 20
146.86661465
 30
0.0
  0
VERTEX
  5
1C93
  8
WHITE
 10
361.01351434999992
 20
146.86661465
 30
0.0
 42
0.4142135500000001
  0
VERTEX
  5
1C94
  8
WHITE
 10
360.84065720749987
 20
146.69375750750001
 30
0.0
  0
VERTEX
  5
1C95
  8
WHITE
 10
360.84065720749987
 20
138.39500534999999
 30
0.0
 42
-0.4153509200000002
  0
VERTEX
  5
1C96
  8
WHITE
 10
360.66712910000001
 20
138.22214951000001
 30
0.0
 42
-0.27086909
  0
VERTEX
  5
1C97
  8
WHITE
 10
354.93000619749989
 20
141.6062341725
 30
0.0
 42
0.12008202
  0
VERTEX
  5
1C98
  8
WHITE
 10
353.81677712499987
 20
142.80638096000001
 30
0.0
 42
0.13658737
  0
VERTEX
  5
1C99
  8
WHITE
 10
346.93364838999997
 20
145.02975501500001
 30
0.0
  0
VERTEX
  5
1C9A
  8
WHITE
 10
346.588001905
 20
145.0394782825
 30
0.0
  0
VERTEX
  5
1C9B
  8
WHITE
 10
346.24221975249998
 20
145.040336865
 30
0.0
  0
SEQEND
  5
1C9C
  8
WHITE
  0
POLYLINE
  5
676
  8
WHITE
 66
     1
 10
0.0
 20
0.0
 30
0.0
 70
     1
  0
VERTEX
  5
1C9D
  8
WHITE
 10
361.54257015249988
 20
211.29427603249999
 30
0.0
 42
0.08679162
  0
VERTEX
  5
1C9E
  8
WHITE
 10
356.13612420499987
 20
206.28631934500001
 30
0.0
 42
0.22068385
  0
VERTEX
  5
1C9F
  8
WHITE
 10
340.37592536250008
 20
197.57191506749999
 30
0.0
 42
0.1728561
  0
VERTEX
  5
1CA0
  8
WHITE
 10
340.29325079500001
 20
197.29381832499999
 30
0.0
 42
-0.29630701
  0
VERTEX
  5
1CA1
  8
WHITE
 10
339.32163739999999
 20
195.60769801750001
 30
0.0
 42
-0.29630701
  0
VERTEX
  5
1CA2
  8
WHITE
 10
337.38616873000001
 20
195.8101698525
 30
0.0
 42
-0.35607512
  0
VERTEX
  5
1CA3
  8
WHITE
 10
337.27428753750002
 20
196.344832685
 30
0.0
  0
VERTEX
  5
1CA4
  8
WHITE
 10
338.26127887749988
 20
198.25054964500001
 30
0.0
 42
-0.12703865
  0
VERTEX
  5
1CA5
  8
WHITE
 10
338.40549060749993
 20
198.41150145
 30
0.0
  0
VERTEX
  5
1CA6
  8
WHITE
 10
340.15268039999989
 20
199.57496238249999
 30
0.0
 42
0.15458938
  0
VERTEX
  5
1CA7
  8
WHITE
 10
340.31608752250008
 20
199.77845573499999
 30
0.0
  0
VERTEX
  5
1CA8
  8
WHITE
 10
341.26920021249998
 20
202.23710259999999
 30
0.0
 42
-0.20498146
  0
VERTEX
  5
1CA9
  8
WHITE
 10
341.506931495
 20
202.48022670750001
 30
0.0
  0
VERTEX
  5
1CAA
  8
WHITE
 10
343.5094175525
 20
203.3086367425
 30
0.0
 42
0.18422607
  0
VERTEX
  5
1CAB
  8
WHITE
 10
343.82296387500008
 20
203.6046365375
 30
0.0
  0
VERTEX
  5
1CAC
  8
WHITE
 10
344.83382597749988
 20
205.69829219249991
 30
0.0
 42
-0.22532665
  0
VERTEX
  5
1CAD
  8
WHITE
 10
345.23807971500008
 20
206.02368491499999
 30
0.0
  0
VERTEX
  5
1CAE
  8
WHITE
 10
346.67053817750002
 20
206.36586771750001
 30
0.0
 42
0.21226327
  0
VERTEX
  5
1CAF
  8
WHITE
 10
347.06100262249993
 20
206.66443090749991
 30
0.0
  0
VERTEX
  5
1CB0
  8
WHITE
 10
348.33723429999998
 20
209.00235329500001
 30
0.0
 42
-0.21226362
  0
VERTEX
  5
1CB1
  8
WHITE
 10
348.72769983749998
 20
209.3009163275
 30
0.0
  0
VERTEX
  5
1CB2
  8
WHITE
 10
351.08119823750002
 20
209.86311603499999
 30
0.0
 42
0.16848395
  0
VERTEX
  5
1CB3
  8
WHITE
 10
351.41535176249999
 20
210.07650533499989
 30
0.0
  0
VERTEX
  5
1CB4
  8
WHITE
 10
353.66500025750008
 20
212.9239674724999
 30
0.0
  0
VERTEX
  5
1CB5
  8
WHITE
 10
358.48268094500008
 20
216.4588433225
 30
0.0
 42
0.1596805
  0
VERTEX
  5
1CB6
  8
WHITE
 10
358.88988590249988
 20
221.3749582925
 30
0.0
 42
0.34258479
  0
VERTEX
  5
1CB7
  8
WHITE
 10
358.72459980999997
 20
221.50770371749991
 30
0.0
 42
0.34258479
  0
VERTEX
  5
1CB8
  8
WHITE
 10
358.5550146475
 20
221.38049635749999
 30
0.0
 42
-0.16329656
  0
VERTEX
  5
1CB9
  8
WHITE
 10
356.53535333249999
 20
218.36964043500001
 30
0.0
 42
0.10514218
  0
VERTEX
  5
1CBA
  8
WHITE
 10
356.37225311999993
 20
218.17798381750001
 30
0.0
  0
VERTEX
  5
1CBB
  8
WHITE
 10
355.4505475075
 20
216.47286488750001
 30
0.0
 42
-0.14920782
  0
VERTEX
  5
1CBC
  8
WHITE
 10
355.19919209999989
 20
216.224703135
 30
0.0
  0
VERTEX
  5
1CBD
  8
WHITE
 10
352.13192345999988
 20
214.61701911749989
 30
0.0
 42
0.18060241
  0
VERTEX
  5
1CBE
  8
WHITE
 10
351.84945748749999
 20
214.30181175749999
 30
0.0
  0
VERTEX
  5
1CBF
  8
WHITE
 10
350.95312375499998
 20
212.01340715250001
 30
0.0
 42
-0.22008342
  0
VERTEX
  5
1CC0
  8
WHITE
 10
350.58638947999998
 20
211.66188734249999
 30
0.0
  0
VERTEX
  5
1CC1
  8
WHITE
 10
347.97420518000001
 20
210.7643525574999
 30
0.0
 42
0.20011595
  0
VERTEX
  5
1CC2
  8
WHITE
 10
347.62597841500002
 20
210.45523645
 30
0.0
  0
VERTEX
  5
1CC3
  8
WHITE
 10
346.72354858249997
 20
208.58615969499999
 30
0.0
 42
-0.20994153
  0
VERTEX
  5
1CC4
  8
WHITE
 10
346.3536072375
 20
208.27003694999991
 30
0.0
  0
VERTEX
  5
1CC5
  8
WHITE
 10
345.10732711499998
 20
207.89372954250001
 30
0.0
 42
0.18635102
  0
VERTEX
  5
1CC6
  8
WHITE
 10
344.763480265
 20
207.625922145
 30
0.0
  0
VERTEX
  5
1CC7
  8
WHITE
 10
343.12235237499988
 20
204.89185868499999
 30
0.0
 42
-0.16492362
  0
VERTEX
  5
1CC8
  8
WHITE
 10
342.82599916499998
 20
204.6405745349999
 30
0.0
  0
VERTEX
  5
1CC9
  8
WHITE
 10
340.08335439500001
 20
203.55661937249999
 30
0.0
 42
0.23144256
  0
VERTEX
  5
1CCA
  8
WHITE
 10
339.82743999749999
 20
203.27608656250001
 30
0.0
  0
VERTEX
  5
1CCB
  8
WHITE
 10
339.40783905000001
 20
201.84208567249999
 30
0.0
  0
VERTEX
  5
1CCC
  8
WHITE
 10
338.10570180500008
 20
199.588252595
 30
0.0
 42
-0.18474041
  0
VERTEX
  5
1CCD
  8
WHITE
 10
337.86588851499999
 20
199.3937129
 30
0.0
  0
VERTEX
  5
1CCE
  8
WHITE
 10
336.92156734999998
 20
199.08477310750001
 30
0.0
 42
0.24171967
  0
VERTEX
  5
1CCF
  8
WHITE
 10
336.64386040749997
 20
198.80420663999999
 30
0.0
  0
VERTEX
  5
1CD0
  8
WHITE
 10
336.24630651500001
 20
197.54553315749999
 30
0.0
 42
-0.41421356
  0
VERTEX
  5
1CD1
  8
WHITE
 10
335.67677225749998
 20
197.046487945
 30
0.0
 42
-0.41421356
  0
VERTEX
  5
1CD2
  8
WHITE
 10
335.17772743
 20
197.61602213
 30
0.0
 42
-0.1416123
  0
VERTEX
  5
1CD3
  8
WHITE
 10
335.2745709875
 20
211.82412841749999
 30
0.0
 42
-0.18192207
  0
VERTEX
  5
1CD4
  8
WHITE
 10
335.64206573749999
 20
212.30947733249999
 30
0.0
 42
0.26073411
  0
VERTEX
  5
1CD5
  8
WHITE
 10
342.14418090250001
 20
224.2718706325
 30
0.0
 42
-0.25791938
  0
VERTEX
  5
1CD6
  8
WHITE
 10
342.53956345249998
 20
225.00851817500001
 30
0.0
 42
0.13713546
  0
VERTEX
  5
1CD7
  8
WHITE
 10
353.13428780250001
 20
236.97032755000001
 30
0.0
 42
-0.38905005
  0
VERTEX
  5
1CD8
  8
WHITE
 10
355.30706419749993
 20
237.82920397500001
 30
0.0
 42
0.22914813
  0
VERTEX
  5
1CD9
  8
WHITE
 10
363.69597184749989
 20
238.543100095
 30
0.0
 42
-0.32375006
  0
VERTEX
  5
1CDA
  8
WHITE
 10
365.7137602775
 20
238.35940282499999
 30
0.0
 42
-0.10786313
  0
VERTEX
  5
1CDB
  8
WHITE
 10
370.65569243499999
 20
231.70675525249999
 30
0.0
 42
-0.33602359
  0
VERTEX
  5
1CDC
  8
WHITE
 10
370.609252545
 20
231.5032218849999
 30
0.0
  0
VERTEX
  5
1CDD
  8
WHITE
 10
362.23457757999989
 20
224.47603526250001
 30
0.0
 42
0.41421348
  0
VERTEX
  5
1CDE
  8
WHITE
 10
362.21327179999992
 20
224.23250861
 30
0.0
  0
VERTEX
  5
1CDF
  8
WHITE
 10
362.96326772999993
 20
223.33869848500001
 30
0.0
 42
0.41421309
  0
VERTEX
  5
1CE0
  8
WHITE
 10
363.20679405750002
 20
223.31739297749991
 30
0.0
  0
VERTEX
  5
1CE1
  8
WHITE
 10
370.013850015
 20
229.02919099249999
 30
0.0
 42
-0.41421319
  0
VERTEX
  5
1CE2
  8
WHITE
 10
370.257376765
 20
229.0078855575
 30
0.0
  0
VERTEX
  5
1CE3
  8
WHITE
 10
371.97850997
 20
226.9567176125
 30
0.0
 42
-0.13908564
  0
VERTEX
  5
1CE4
  8
WHITE
 10
372.17160253999992
 20
226.52633556250001
 30
0.0
 42
-0.15539101
  0
VERTEX
  5
1CE5
  8
WHITE
 10
370.2580437025
 20
214.88943835750001
 30
0.0
 42
-0.23781323
  0
VERTEX
  5
1CE6
  8
WHITE
 10
369.63044879249992
 20
214.42939787
 30
0.0
 42
0.09427284
  0
VERTEX
  5
1CE7
  8
WHITE
 10
362.13100729249987
 20
211.661386725
 30
0.0
  0
VERTEX
  5
1CE8
  8
WHITE
 10
361.83530051999992
 20
211.48021679999999
 30
0.0
  0
VERTEX
  5
1CE9
  8
WHITE
 10
361.54257015249988
 20
211.29427603249999
 30
0.0
  0
SEQEND
  5
1CEA
  8
WHITE
  0
POLYLINE
  5
6C5
  8
WHITE
 66
     1
 10
0.0
 20
0.0
 30
0.0
 70
     1
  0
VERTEX
  5
1CEB
  8
WHITE
 10
385.22608772249993
 20
173.9196023275
 30
0.0
 42
0.08242311
  0
VERTEX
  5
1CEC
  8
WHITE
 10
379.73360463249992
 20
172.9765248825
 30
0.0
 42
0.12778712
  0
VERTEX
  5
1CED
  8
WHITE
 10
377.92608593749992
 20
171.76964867500001
 30
0.0
 42
-0.2048188
  0
VERTEX
  5
1CEE
  8
WHITE
 10
371.35855346749992
 20
168.68689552500001
 30
0.0
 42
-0.20344046
  0
VERTEX
  5
1CEF
  8
WHITE
 10
371.2324542225
 20
168.735310545
 30
0.0
 42
-0.20344046
  0
VERTEX
  5
1CF0
  8
WHITE
 10
371.17967938750002
 20
168.85964810499999
 30
0.0
  0
VERTEX
  5
1CF1
  8
WHITE
 10
371.17967938750002
 20
180.004544985
 30
0.0
 42
0.41421356
  0
VERTEX
  5
1CF2
  8
WHITE
 10
371.00682224500002
 20
180.17740212749999
 30
0.0
  0
VERTEX
  5
1CF3
  8
WHITE
 10
369.84003653000002
 20
180.17740212749999
 30
0.0
 42
0.4142133700000001
  0
VERTEX
  5
1CF4
  8
WHITE
 10
369.66717938750003
 20
180.0045450975
 30
0.0
  0
VERTEX
  5
1CF5
  8
WHITE
 10
369.66717938750003
 20
168.8539749425
 30
0.0
 42
-0.41464658
  0
VERTEX
  5
1CF6
  8
WHITE
 10
369.49406673250002
 20
168.68111798999999
 30
0.0
 42
-0.21345035
  0
VERTEX
  5
1CF7
  8
WHITE
 10
362.620585925
 20
171.76768426749999
 30
0.0
 42
0.12778713
  0
VERTEX
  5
1CF8
  8
WHITE
 10
360.81275805749999
 20
172.9740965675
 30
0.0
 42
0.26806938
  0
VERTEX
  5
1CF9
  8
WHITE
 10
344.09306647749997
 20
169.7661948125
 30
0.0
 42
0.10522127
  0
VERTEX
  5
1CFA
  8
WHITE
 10
342.35636422250002
 20
167.47093707499999
 30
0.0
 42
0.05646634
  0
VERTEX
  5
1CFB
  8
WHITE
 10
339.46058316749998
 20
158.88410802499999
 30
0.0
 42
-0.24889266
  0
VERTEX
  5
1CFC
  8
WHITE
 10
338.93840028499989
 20
158.26454898750001
 30
0.0
 42
-0.24889266
  0
VERTEX
  5
1CFD
  8
WHITE
 10
338.13262087999999
 20
158.34968426250001
 30
0.0
 42
-0.10146004
  0
VERTEX
  5
1CFE
  8
WHITE
 10
335.96535571750002
 20
160.56059466249999
 30
0.0
 42
-0.23746841
  0
VERTEX
  5
1CFF
  8
WHITE
 10
335.30199912
 20
166.74221112999999
 30
0.0
 42
-0.09782802
  0
VERTEX
  5
1D00
  8
WHITE
 10
344.78494581249993
 20
182.05651829000001
 30
0.0
 42
-0.32728806
  0
VERTEX
  5
1D01
  8
WHITE
 10
349.80424440749999
 20
183.01520891749999
 30
0.0
 42
0.28426054
  0
VERTEX
  5
1D02
  8
WHITE
 10
361.51108511000001
 20
184.9770350375
 30
0.0
 42
0.28426054
  0
VERTEX
  5
1D03
  8
WHITE
 10
364.9842087175
 20
196.32764263000001
 30
0.0
 42
-0.21922236
  0
VERTEX
  5
1D04
  8
WHITE
 10
365.10985904249992
 20
197.03977229750001
 30
0.0
 42
-0.21922236
  0
VERTEX
  5
1D05
  8
WHITE
 10
365.73271149250002
 20
197.40715696500001
 30
0.0
 42
-0.10187928
  0
VERTEX
  5
1D06
  8
WHITE
 10
374.80378977499993
 20
197.40868582249999
 30
0.0
 42
-0.21963935
  0
VERTEX
  5
1D07
  8
WHITE
 10
375.42754881000002
 20
197.04037987250001
 30
0.0
 42
-0.21963935
  0
VERTEX
  5
1D08
  8
WHITE
 10
375.55195283249992
 20
196.32676355999999
 30
0.0
 42
0.28515872
  0
VERTEX
  5
1D09
  8
WHITE
 10
379.01548502499992
 20
184.9594010125
 30
0.0
 42
0.28515872
  0
VERTEX
  5
1D0A
  8
WHITE
 10
390.73954114750001
 20
183.02046171750001
 30
0.0
 42
-0.32728806
  0
VERTEX
  5
1D0B
  8
WHITE
 10
395.75908489250003
 20
182.06305906
 30
0.0
 42
-0.09782802
  0
VERTEX
  5
1D0C
  8
WHITE
 10
405.24596170000001
 20
166.75118632249999
 30
0.0
 42
-0.23746841
  0
VERTEX
  5
1D0D
  8
WHITE
 10
404.58419213000002
 20
160.56940023000001
 30
0.0
 42
-0.10146005
  0
VERTEX
  5
1D0E
  8
WHITE
 10
402.41749383749999
 20
158.35793445249999
 30
0.0
 42
-0.24889261
  0
VERTEX
  5
1D0F
  8
WHITE
 10
401.61173732499992
 20
158.27259187999999
 30
0.0
 42
-0.24889261
  0
VERTEX
  5
1D10
  8
WHITE
 10
401.08939483249992
 20
158.89201552
 30
0.0
 42
0.05646635
  0
VERTEX
  5
1D11
  8
WHITE
 10
398.19140919
 20
167.47810140999999
 30
0.0
 42
0.10522129
  0
VERTEX
  5
1D12
  8
WHITE
 10
396.45411836749992
 20
169.77291331500001
 30
0.0
 42
0.17115779
  0
VERTEX
  5
1D13
  8
WHITE
 10
385.91751619749999
 20
173.909404765
 30
0.0
  0
VERTEX
  5
1D14
  8
WHITE
 10
385.57185376000001
 20
173.91801581749999
 30
0.0
  0
VERTEX
  5
1D15
  8
WHITE
 10
385.22608772249993
 20
173.9196023275
 30
0.0
  0
SEQEND
  5
1D16
  8
WHITE
  0
POLYLINE
  5
6F2
  8
WHITE
 66
     1
 10
0.0
 20
0.0
 30
0.0
 70
     1
  0
VERTEX
  5
1D17
  8
WHITE
 10
366.03211627749999
 20
39.293924972500001
 30
0.0
 42
0.18240526
  0
VERTEX
  5
1D18
  8
WHITE
 10
358.62561574
 20
32.735702897499998
 30
0.0
 42
-0.34481253
  0
VERTEX
  5
1D19
  8
WHITE
 10
358.43118434000002
 20
32.648530045000001
 30
0.0
 42
-0.34481253
  0
VERTEX
  5
1D1A
  8
WHITE
 10
358.29985426500002
 20
32.816324842500002
 30
0.0
  0
VERTEX
  5
1D1B
  8
WHITE
 10
358.29985426500002
 20
40.978646907499993
 30
0.0
 42
0.41421354
  0
VERTEX
  5
1D1C
  8
WHITE
 10
358.12699713500001
 20
41.15150405
 30
0.0
  0
VERTEX
  5
1D1D
  8
WHITE
 10
356.96021140750008
 20
41.15150405
 30
0.0
 42
0.41421356
  0
VERTEX
  5
1D1E
  8
WHITE
 10
356.78735426499998
 20
40.978646907499993
 30
0.0
  0
VERTEX
  5
1D1F
  8
WHITE
 10
356.78735426499998
 20
32.773846065000001
 30
0.0
 42
-0.34132645
  0
VERTEX
  5
1D20
  8
WHITE
 10
356.65811429749999
 20
32.606582397499999
 30
0.0
 42
-0.34132645
  0
VERTEX
  5
1D21
  8
WHITE
 10
356.46365182999989
 20
32.689434534999997
 30
0.0
 42
0.3979498
  0
VERTEX
  5
1D22
  8
WHITE
 10
337.74407633499999
 20
38.544636977499991
 30
0.0
 42
-0.20938655
  0
VERTEX
  5
1D23
  8
WHITE
 10
337.05119867500008
 20
38.515850887500001
 30
0.0
 42
-0.20938655
  0
VERTEX
  5
1D24
  8
WHITE
 10
336.5601996675
 20
39.005573322499991
 30
0.0
 42
-0.2525365
  0
VERTEX
  5
1D25
  8
WHITE
 10
337.77448508750001
 20
49.005429087499998
 30
0.0
 42
-0.2519598
  0
VERTEX
  5
1D26
  8
WHITE
 10
338.50783196999993
 20
49.370212192499999
 30
0.0
 42
-0.05939096
  0
VERTEX
  5
1D27
  8
WHITE
 10
351.89714760499987
 20
47.336976235000002
 30
0.0
 42
0.24789005
  0
VERTEX
  5
1D28
  8
WHITE
 10
353.47416053000001
 20
47.684063502500003
 30
0.0
 42
0.24789005
  0
VERTEX
  5
1D29
  8
WHITE
 10
354.07639145500002
 20
49.182314845000001
 30
0.0
  0
VERTEX
  5
1D2A
  8
WHITE
 10
353.21843557250008
 20
57.418690422499999
 30
0.0
 42
-0.31795148
  0
VERTEX
  5
1D2B
  8
WHITE
 10
353.70742516749999
 20
58.289012290000002
 30
0.0
 42
-0.22530782
  0
VERTEX
  5
1D2C
  8
WHITE
 10
361.68228336250002
 20
58.289012290000002
 30
0.0
 42
-0.31795148
  0
VERTEX
  5
1D2D
  8
WHITE
 10
362.17127260000001
 20
57.41869046499999
 30
0.0
  0
VERTEX
  5
1D2E
  8
WHITE
 10
361.31331605000003
 20
49.182314672499999
 30
0.0
 42
0.24789009
  0
VERTEX
  5
1D2F
  8
WHITE
 10
361.91554731999992
 20
47.684063347499993
 30
0.0
 42
0.24789009
  0
VERTEX
  5
1D30
  8
WHITE
 10
363.49256006000002
 20
47.336976235000002
 30
0.0
 42
-0.05939096
  0
VERTEX
  5
1D31
  8
WHITE
 10
376.88187566750003
 20
49.370213055000001
 30
0.0
 42
-0.25195995
  0
VERTEX
  5
1D32
  8
WHITE
 10
377.615223345
 20
49.00542901499999
 30
0.0
 42
-0.2525365
  0
VERTEX
  5
1D33
  8
WHITE
 10
378.829508465
 20
39.00557348249999
 30
0.0
 42
-0.20938655
  0
VERTEX
  5
1D34
  8
WHITE
 10
378.33850985750001
 20
38.515850887500001
 30
0.0
 42
-0.20938655
  0
VERTEX
  5
1D35
  8
WHITE
 10
377.64563220000002
 20
38.54463698499999
 30
0.0
 42
0.20446604
  0
VERTEX
  5
1D36
  8
WHITE
 10
366.69115381749992
 20
39.526267327500001
 30
0.0
  0
VERTEX
  5
1D37
  8
WHITE
 10
366.36018620499999
 20
39.414205782499991
 30
0.0
  0
VERTEX
  5
1D38
  8
WHITE
 10
366.03211627749999
 20
39.293924972500001
 30
0.0
  0
SEQEND
  5
1D39
  8
WHITE
  0
POLYLINE
  5
716
  8
WHITE
 66
     1
 10
0.0
 20
0.0
 30
0.0
 70
     1
  0
VERTEX
  5
1D3A
  8
WHITE
 10
374.56262289
 20
109.05052902
 30
0.0
 42
0.11228929
  0
VERTEX
  5
1D3B
  8
WHITE
 10
368.22950770749992
 20
106.9583591275
 30
0.0
 42
0.16905649
  0
VERTEX
  5
1D3C
  8
WHITE
 10
367.5033799725
 20
106.08417285
 30
0.0
 42
-0.1633463
  0
VERTEX
  5
1D3D
  8
WHITE
 10
363.05571098749988
 20
100.60689754000001
 30
0.0
 42
-0.27349492
  0
VERTEX
  5
1D3E
  8
WHITE
 10
362.8798537225
 20
100.60144379250001
 30
0.0
 42
-0.27349492
  0
VERTEX
  5
1D3F
  8
WHITE
 10
362.79031292249988
 20
100.752896685
 30
0.0
  0
VERTEX
  5
1D40
  8
WHITE
 10
362.79031292249988
 20
109.10051815
 30
0.0
 42
0.4142135500000001
  0
VERTEX
  5
1D41
  8
WHITE
 10
362.61745578749992
 20
109.27337529250001
 30
0.0
  0
VERTEX
  5
1D42
  8
WHITE
 10
361.450670065
 20
109.27337529250001
 30
0.0
 42
0.4142135500000001
  0
VERTEX
  5
1D43
  8
WHITE
 10
361.2778129225
 20
109.10051815
 30
0.0
  0
VERTEX
  5
1D44
  8
WHITE
 10
361.2778129225
 20
100.9517429
 30
0.0
 42
-0.27795645
  0
VERTEX
  5
1D45
  8
WHITE
 10
361.18574890000002
 20
100.79892907999999
 30
0.0
 42
-0.27795645
  0
VERTEX
  5
1D46
  8
WHITE
 10
361.00762378749999
 20
100.80889272
 30
0.0
 42
-0.15484375
  0
VERTEX
  5
1D47
  8
WHITE
 10
356.86724483249998
 20
106.08417278
 30
0.0
 42
0.16905649
  0
VERTEX
  5
1D48
  8
WHITE
 10
356.14111744749988
 20
106.95835944
 30
0.0
 42
0.32659442
  0
VERTEX
  5
1D49
  8
WHITE
 10
338.46049923999988
 20
105.38706521500001
 30
0.0
 42
-0.24893358
  0
VERTEX
  5
1D4A
  8
WHITE
 10
338.06616749
 20
105.29388834
 30
0.0
 42
-0.24893358
  0
VERTEX
  5
1D4B
  8
WHITE
 10
337.76800470000001
 20
105.5682576275
 30
0.0
  0
VERTEX
  5
1D4C
  8
WHITE
 10
336.60120686250002
 20
108.87743995
 30
0.0
 42
-0.13654047
  0
VERTEX
  5
1D4D
  8
WHITE
 10
336.5699134875
 20
109.33978272500001
 30
0.0
  0
VERTEX
  5
1D4E
  8
WHITE
 10
337.87489952250002
 20
115.653469345
 30
0.0
 42
-0.29090942
  0
VERTEX
  5
1D4F
  8
WHITE
 10
338.52039663250008
 20
116.3191385775
 30
0.0
 42
-0.09435571
  0
VERTEX
  5
1D50
  8
WHITE
 10
354.73081602000002
 20
117.0724275175
 30
0.0
 42
0.23319628
  0
VERTEX
  5
1D51
  8
WHITE
 10
357.6373696
 20
118.02430524250001
 30
0.0
 42
0.23319628
  0
VERTEX
  5
1D52
  8
WHITE
 10
358.65127477499999
 20
120.90980704250001
 30
0.0
  0
VERTEX
  5
1D53
  8
WHITE
 10
358.00605157249998
 20
126.2473149275
 30
0.0
 42
-0.39819103
  0
VERTEX
  5
1D54
  8
WHITE
 10
359.06699198249993
 20
127.67945654499999
 30
0.0
 42
-0.08788189
  0
VERTEX
  5
1D55
  8
WHITE
 10
365.30363386250002
 20
127.67945654499999
 30
0.0
 42
-0.39819084
  0
VERTEX
  5
1D56
  8
WHITE
 10
366.36457332499992
 20
126.2473149325
 30
0.0
  0
VERTEX
  5
1D57
  8
WHITE
 10
365.71935041500001
 20
120.90980700750001
 30
0.0
 42
0.23319628
  0
VERTEX
  5
1D58
  8
WHITE
 10
366.73325538
 20
118.02430524250001
 30
0.0
 42
0.23319628
  0
VERTEX
  5
1D59
  8
WHITE
 10
369.63980895999993
 20
117.0724275175
 30
0.0
 42
-0.09435571
  0
VERTEX
  5
1D5A
  8
WHITE
 10
385.85022845750001
 20
116.31913905
 30
0.0
 42
-0.29090942
  0
VERTEX
  5
1D5B
  8
WHITE
 10
386.49572542250002
 20
115.6534693425
 30
0.0
  0
VERTEX
  5
1D5C
  8
WHITE
 10
387.80071128750001
 20
109.339782685
 30
0.0
 42
-0.13654047
  0
VERTEX
  5
1D5D
  8
WHITE
 10
387.76941809499988
 20
108.8774399575
 30
0.0
  0
VERTEX
  5
1D5E
  8
WHITE
 10
386.60262004250001
 20
105.5682577125
 30
0.0
 42
-0.24893358
  0
VERTEX
  5
1D5F
  8
WHITE
 10
386.30445749
 20
105.29388834
 30
0.0
 42
-0.24893358
  0
VERTEX
  5
1D60
  8
WHITE
 10
385.91012574000001
 20
105.38706521500001
 30
0.0
 42
0.1947325
  0
VERTEX
  5
1D61
  8
WHITE
 10
375.25405147999987
 20
109.10065611500001
 30
0.0
  0
VERTEX
  5
1D62
  8
WHITE
 10
374.90804826999999
 20
109.0795777475
 30
0.0
  0
VERTEX
  5
1D63
  8
WHITE
 10
374.56262289
 20
109.05052902
 30
0.0
  0
SEQEND
  5
1D64
  8
WHITE
  0
POLYLINE
  5
742
  8
WHITE
 66
     1
 10
0.0
 20
0.0
 30
0.0
 70
     1
  0
VERTEX
  5
1D65
  8
WHITE
 10
384.29478234499987
 20
68.137100529999998
 30
0.0
 42
0.0742311
  0
VERTEX
  5
1D66
  8
WHITE
 10
380.07803016999992
 20
66.745969814999995
 30
0.0
 42
0.1719886
  0
VERTEX
  5
1D67
  8
WHITE
 10
378.0818532225
 20
64.659556249999994
 30
0.0
 42
-0.14684378
  0
VERTEX
  5
1D68
  8
WHITE
 10
373.90611291250002
 20
59.843020812500001
 30
0.0
 42
-0.27349493
  0
VERTEX
  5
1D69
  8
WHITE
 10
373.7302556075
 20
59.8375671075
 30
0.0
 42
-0.27349493
  0
VERTEX
  5
1D6A
  8
WHITE
 10
373.64071480749999
 20
59.989019999999996
 30
0.0
  0
VERTEX
  5
1D6B
  8
WHITE
 10
373.64071480749999
 20
68.336640599999996
 30
0.0
 42
0.4142135500000001
  0
VERTEX
  5
1D6C
  8
WHITE
 10
373.467857665
 20
68.509497742500002
 30
0.0
  0
VERTEX
  5
1D6D
  8
WHITE
 10
372.30107193999987
 20
68.509497742500002
 30
0.0
 42
0.41421354
  0
VERTEX
  5
1D6E
  8
WHITE
 10
372.1282148075
 20
68.336640599999996
 30
0.0
  0
VERTEX
  5
1D6F
  8
WHITE
 10
372.1282148075
 20
60.187866215
 30
0.0
 42
-0.27795645
  0
VERTEX
  5
1D70
  8
WHITE
 10
372.03615078500002
 20
60.035052395000001
 30
0.0
 42
-0.27795645
  0
VERTEX
  5
1D71
  8
WHITE
 10
371.85802567249999
 20
60.045016035000003
 30
0.0
 42
-0.13838246
  0
VERTEX
  5
1D72
  8
WHITE
 10
367.98957568999992
 20
64.659555897499999
 30
0.0
 42
0.1719886
  0
VERTEX
  5
1D73
  8
WHITE
 10
365.99339944500002
 20
66.745969814999995
 30
0.0
 42
0.27630779
  0
VERTEX
  5
1D74
  8
WHITE
 10
350.59351153249997
 20
65.630455252499999
 30
0.0
 42
-0.39631529
  0
VERTEX
  5
1D75
  8
WHITE
 10
349.42149611500008
 20
65.799417539999993
 30
0.0
 42
-0.33506611
  0
VERTEX
  5
1D76
  8
WHITE
 10
349.17141479750001
 20
75.288263345000004
 30
0.0
 42
-0.18281112
  0
VERTEX
  5
1D77
  8
WHITE
 10
349.679964735
 20
75.627954847500007
 30
0.0
 42
-0.09250938
  0
VERTEX
  5
1D78
  8
WHITE
 10
365.58121782749993
 20
76.308550155000006
 30
0.0
 42
0.23319629
  0
VERTEX
  5
1D79
  8
WHITE
 10
368.48777144249988
 20
77.260427649999997
 30
0.0
 42
0.23319629
  0
VERTEX
  5
1D7A
  8
WHITE
 10
369.50167644999999
 20
80.145929457500003
 30
0.0
  0
VERTEX
  5
1D7B
  8
WHITE
 10
368.85645354000002
 20
85.4834373825
 30
0.0
 42
-0.39819096
  0
VERTEX
  5
1D7C
  8
WHITE
 10
369.91739356250002
 20
86.915578940000003
 30
0.0
 42
-0.08788189
  0
VERTEX
  5
1D7D
  8
WHITE
 10
376.15403527249993
 20
86.915579457500002
 30
0.0
 42
-0.39819096
  0
VERTEX
  5
1D7E
  8
WHITE
 10
377.21497529499987
 20
85.483437377499996
 30
0.0
  0
VERTEX
  5
1D7F
  8
WHITE
 10
376.5697523
 20
80.145929457500003
 30
0.0
 42
0.23319625
  0
VERTEX
  5
1D80
  8
WHITE
 10
377.58365851999991
 20
77.260428520000005
 30
0.0
 42
0.23319625
  0
VERTEX
  5
1D81
  8
WHITE
 10
380.49021084499992
 20
76.308550830000001
 30
0.0
 42
-0.09212148
  0
VERTEX
  5
1D82
  8
WHITE
 10
396.32643036249988
 20
75.642941342499995
 30
0.0
 42
-0.21726457
  0
VERTEX
  5
1D83
  8
WHITE
 10
396.8958567825
 20
75.206809024999998
 30
0.0
 42
-0.26534851
  0
VERTEX
  5
1D84
  8
WHITE
 10
396.62328153750002
 20
65.949293374999996
 30
0.0
 42
-0.20626718
  0
VERTEX
  5
1D85
  8
WHITE
 10
396.06492538250001
 20
65.554216232499996
 30
0.0
 42
-0.20626718
  0
VERTEX
  5
1D86
  8
WHITE
 10
395.39427761000002
 20
65.688675052500002
 30
0.0
 42
0.18433648
  0
VERTEX
  5
1D87
  8
WHITE
 10
384.97902163250001
 20
68.238742827500005
 30
0.0
  0
VERTEX
  5
1D88
  8
WHITE
 10
384.63631742749988
 20
68.191856904999995
 30
0.0
  0
VERTEX
  5
1D89
  8
WHITE
 10
384.29478234499987
 20
68.137100529999998
 30
0.0
  0
SEQEND
  5
1D8A
  8
WHITE
  0
POLYLINE
  5
769
  8
WHITE
 66
     1
 10
0.0
 20
0.0
 30
0.0
 70
     1
  0
VERTEX
  5
1D8B
  8
WHITE
 10
382.59746011250002
 20
10.4197776675
 30
0.0
 42
0.0932908
  0
VERTEX
  5
1D8C
  8
WHITE
 10
377.86829572750003
 20
7.089247617499999
 30
0.0
 42
-0.13721302
  0
VERTEX
  5
1D8D
  8
WHITE
 10
373.77835823250001
 20
4.0089239775000003
 30
0.0
 42
-0.24784369
  0
VERTEX
  5
1D8E
  8
WHITE
 10
373.61794090000001
 20
4.0271461275
 30
0.0
 42
-0.24784369
  0
VERTEX
  5
1D8F
  8
WHITE
 10
373.54254405
 20
4.1699084575000001
 30
0.0
  0
VERTEX
  5
1D90
  8
WHITE
 10
373.54254405
 20
11.444959127500001
 30
0.0
 42
0.41421356
  0
VERTEX
  5
1D91
  8
WHITE
 10
373.36968690750001
 20
11.617816272500001
 30
0.0
  0
VERTEX
  5
1D92
  8
WHITE
 10
372.20290119499992
 20
11.617816272500001
 30
0.0
 42
0.41421356
  0
VERTEX
  5
1D93
  8
WHITE
 10
372.03004405000001
 20
11.444959127500001
 30
0.0
  0
VERTEX
  5
1D94
  8
WHITE
 10
372.03004405000001
 20
4.2943647350000003
 30
0.0
 42
-0.25249979
  0
VERTEX
  5
1D95
  8
WHITE
 10
371.95213010499992
 20
4.1499161950000003
 30
0.0
 42
-0.25249979
  0
VERTEX
  5
1D96
  8
WHITE
 10
371.78862637999993
 20
4.135685787499999
 30
0.0
 42
-0.1282948
  0
VERTEX
  5
1D97
  8
WHITE
 10
368.00679242249993
 20
7.089247317499999
 30
0.0
 42
0.25556603
  0
VERTEX
  5
1D98
  8
WHITE
 10
353.66972257499992
 20
11.511615727500001
 30
0.0
 42
-0.27535802
  0
VERTEX
  5
1D99
  8
WHITE
 10
352.83439432500001
 20
11.803511895
 30
0.0
 42
-0.36596935
  0
VERTEX
  5
1D9A
  8
WHITE
 10
352.8727635175
 20
20.4541799725
 30
0.0
 42
-0.25182042
  0
VERTEX
  5
1D9B
  8
WHITE
 10
353.63563701499999
 20
20.751227292500001
 30
0.0
  0
VERTEX
  5
1D9C
  8
WHITE
 10
364.29799452750001
 20
19.443223187499999
 30
0.0
 42
0.22571365
  0
VERTEX
  5
1D9D
  8
WHITE
 10
367.11540994749993
 20
20.382898534999999
 30
0.0
 42
0.22571365
  0
VERTEX
  5
1D9E
  8
WHITE
 10
368.16416055000002
 20
23.161556767499999
 30
0.0
  0
VERTEX
  5
1D9F
  8
WHITE
 10
367.67677818999999
 20
29.01395797
 30
0.0
 42
-0.13951866
  0
VERTEX
  5
1DA0
  8
WHITE
 10
372.93754408749987
 20
29.96386523
 30
0.0
 42
-0.13951866
  0
VERTEX
  5
1DA1
  8
WHITE
 10
378.19831031500001
 20
29.013957749999999
 30
0.0
  0
VERTEX
  5
1DA2
  8
WHITE
 10
377.71092750000003
 20
23.1615568
 30
0.0
 42
0.22571365
  0
VERTEX
  5
1DA3
  8
WHITE
 10
378.75967815500002
 20
20.382898534999999
 30
0.0
 42
0.22571365
  0
VERTEX
  5
1DA4
  8
WHITE
 10
381.57709357499988
 20
19.443223187499999
 30
0.0
  0
VERTEX
  5
1DA5
  8
WHITE
 10
392.23945115499993
 20
20.751226717499989
 30
0.0
 42
-0.25182042
  0
VERTEX
  5
1DA6
  8
WHITE
 10
393.00232415750003
 20
20.454179612499999
 30
0.0
 42
-0.36596935
  0
VERTEX
  5
1DA7
  8
WHITE
 10
393.04069443999992
 20
11.8035113425
 30
0.0
 42
-0.27535802
  0
VERTEX
  5
1DA8
  8
WHITE
 10
392.20536552750002
 20
11.511615727500001
 30
0.0
 42
0.14717813
  0
VERTEX
  5
1DA9
  8
WHITE
 10
383.2330386575
 20
10.692560074999999
 30
0.0
  0
VERTEX
  5
1DAA
  8
WHITE
 10
382.91374086500002
 20
10.559683697500001
 30
0.0
  0
VERTEX
  5
1DAB
  8
WHITE
 10
382.59746011250002
 20
10.4197776675
 30
0.0
  0
SEQEND
  5
1DAC
  8
WHITE
  0
POLYLINE
  5
78C
  8
WHITE
 66
     1
 10
0.0
 20
0.0
 30
0.0
 70
     1
  0
VERTEX
  5
1DAD
  8
WHITE
 10
391.10842210750002
 20
90.011848492499993
 30
0.0
 42
0.10883767
  0
VERTEX
  5
1DAE
  8
WHITE
 10
387.44735333749992
 20
90.924261147500005
 30
0.0
 42
-0.22573285
  0
VERTEX
  5
1DAF
  8
WHITE
 10
386.78580339249987
 20
91.261511177499997
 30
0.0
 42
-0.22573285
  0
VERTEX
  5
1DB0
  8
WHITE
 10
386.6300656725
 20
91.987549514999984
 30
0.0
  0
VERTEX
  5
1DB1
  8
WHITE
 10
387.76512929749993
 20
96.776521279999997
 30
0.0
 42
-0.26612006
  0
VERTEX
  5
1DB2
  8
WHITE
 10
388.35259689499992
 20
97.403461809999996
 30
0.0
 42
-0.05697354
  0
VERTEX
  5
1DB3
  8
WHITE
 10
394.03897583999992
 20
98.461032417499993
 30
0.0
 42
0.41887151
  0
VERTEX
  5
1DB4
  8
WHITE
 10
396.44076254999987
 20
101.2700726325
 30
0.0
  0
VERTEX
  5
1DB5
  8
WHITE
 10
396.166412815
 20
104.4547224425
 30
0.0
 42
-0.34477372
  0
VERTEX
  5
1DB6
  8
WHITE
 10
396.45746599500001
 20
104.9008227775
 30
0.0
 42
-0.16583846
  0
VERTEX
  5
1DB7
  8
WHITE
 10
404.46098688000001
 20
104.9008221675
 30
0.0
 42
-0.34477372
  0
VERTEX
  5
1DB8
  8
WHITE
 10
404.75203948000001
 20
104.454722285
 30
0.0
  0
VERTEX
  5
1DB9
  8
WHITE
 10
404.47769012999993
 20
101.2700722925
 30
0.0
 42
0.41887151
  0
VERTEX
  5
1DBA
  8
WHITE
 10
406.87947727749992
 20
98.461032852499997
 30
0.0
 42
-0.05697354
  0
VERTEX
  5
1DBB
  8
WHITE
 10
412.56585617249999
 20
97.403461730000004
 30
0.0
 42
-0.26612006
  0
VERTEX
  5
1DBC
  8
WHITE
 10
413.15332358000001
 20
96.776521222499994
 30
0.0
  0
VERTEX
  5
1DBD
  8
WHITE
 10
414.28838762499993
 20
91.987549474999994
 30
0.0
 42
-0.22573285
  0
VERTEX
  5
1DBE
  8
WHITE
 10
414.13264969750003
 20
91.261511177499997
 30
0.0
 42
-0.22573285
  0
VERTEX
  5
1DBF
  8
WHITE
 10
413.47109975000001
 20
90.924261147500005
 30
0.0
 42
0.26713393
  0
VERTEX
  5
1DC0
  8
WHITE
 10
406.01243329499999
 20
86.356444152500003
 30
0.0
 42
-0.13786105
  0
VERTEX
  5
1DC1
  8
WHITE
 10
405.03241966749988
 20
85.352253677499988
 30
0.0
 42
-0.09284132
  0
VERTEX
  5
1DC2
  8
WHITE
 10
401.5659764925
 20
84.132144847500001
 30
0.0
 42
-0.2189098
  0
VERTEX
  5
1DC3
  8
WHITE
 10
401.42707278249992
 20
84.171746825
 30
0.0
 42
-0.2189098
  0
VERTEX
  5
1DC4
  8
WHITE
 10
401.36672654500001
 20
84.302975207499998
 30
0.0
  0
VERTEX
  5
1DC5
  8
WHITE
 10
401.36672654500001
 20
91.635901907499985
 30
0.0
 42
0.4142135500000001
  0
VERTEX
  5
1DC6
  8
WHITE
 10
401.19386939999993
 20
91.808759050000006
 30
0.0
  0
VERTEX
  5
1DC7
  8
WHITE
 10
400.02708367499991
 20
91.808759050000006
 30
0.0
 42
0.41421354
  0
VERTEX
  5
1DC8
  8
WHITE
 10
399.85422654500002
 20
91.635901907499985
 30
0.0
  0
VERTEX
  5
1DC9
  8
WHITE
 10
399.85422654500002
 20
84.261051300000005
 30
0.0
 42
-0.21483421
  0
VERTEX
  5
1DCA
  8
WHITE
 10
399.79590981249987
 20
84.131590549999984
 30
0.0
 42
-0.21483421
  0
VERTEX
  5
1DCB
  8
WHITE
 10
399.66030825500002
 20
84.089482230000016
 30
0.0
 42
-0.10069876
  0
VERTEX
  5
1DCC
  8
WHITE
 10
395.88603305250001
 20
85.352253035000004
 30
0.0
 42
-0.13786105
  0
VERTEX
  5
1DCD
  8
WHITE
 10
394.9060190324999
 20
86.356443737500001
 30
0.0
 42
0.1327813
  0
VERTEX
  5
1DCE
  8
WHITE
 10
391.74214942250001
 20
89.663743667500015
 30
0.0
  0
VERTEX
  5
1DCF
  8
WHITE
 10
391.42887498250002
 20
89.844330279999994
 30
0.0
  0
VERTEX
  5
1DD0
  8
WHITE
 10
391.10842210750002
 20
90.011848492499993
 30
0.0
  0
SEQEND
  5
1DD1
  8
WHITE
  0
POLYLINE
  5
7B2
  8
WHITE
 66
     1
 10
0.0
 20
0.0
 30
0.0
 70
     1
  0
VERTEX
  5
1DD2
  8
WHITE
 10
393.38220418750001
 20
35.64159643499999
 30
0.0
 42
0.11489371
  0
VERTEX
  5
1DD3
  8
WHITE
 10
389.838021755
 20
36.699851045000003
 30
0.0
 42
-0.36326526
  0
VERTEX
  5
1DD4
  8
WHITE
 10
390.5309834075
 20
41.843781149999991
 30
0.0
 42
0.21213873
  0
VERTEX
  5
1DD5
  8
WHITE
 10
395.17060709999993
 20
44.791624390000003
 30
0.0
 42
0.21213873
  0
VERTEX
  5
1DD6
  8
WHITE
 10
396.09311392749993
 20
50.210560430000001
 30
0.0
 42
-0.14806211
  0
VERTEX
  5
1DD7
  8
WHITE
 10
403.27021596499992
 20
50.210560517499999
 30
0.0
 42
0.21213874
  0
VERTEX
  5
1DD8
  8
WHITE
 10
404.19272297250001
 20
44.791624242499999
 30
0.0
 42
0.21213874
  0
VERTEX
  5
1DD9
  8
WHITE
 10
408.83234691500002
 20
41.843781097499992
 30
0.0
 42
-0.36326529
  0
VERTEX
  5
1DDA
  8
WHITE
 10
409.525308145
 20
36.69985145750001
 30
0.0
 42
0.23750893
  0
VERTEX
  5
1DDB
  8
WHITE
 10
403.18965948250002
 20
33.006773930000001
 30
0.0
  0
VERTEX
  5
1DDC
  8
WHITE
 10
400.45571063
 20
33.067070549999997
 30
0.0
 42
-0.40776952
  0
VERTEX
  5
1DDD
  8
WHITE
 10
400.28666498749999
 20
33.2398862075
 30
0.0
  0
VERTEX
  5
1DDE
  8
WHITE
 10
400.28666498749999
 20
39.1563134425
 30
0.0
 42
0.41421346
  0
VERTEX
  5
1DDF
  8
WHITE
 10
400.11380790499987
 20
39.329170585
 30
0.0
  0
VERTEX
  5
1DE0
  8
WHITE
 10
398.94702212999988
 20
39.329170585
 30
0.0
 42
0.41421347
  0
VERTEX
  5
1DE1
  8
WHITE
 10
398.7741649875
 20
39.1563134425
 30
0.0
  0
VERTEX
  5
1DE2
  8
WHITE
 10
398.7741649875
 20
33.233214785000001
 30
0.0
 42
-0.40776942
  0
VERTEX
  5
1DE3
  8
WHITE
 10
398.60511934499988
 20
33.060399127499998
 30
0.0
  0
VERTEX
  5
1DE4
  8
WHITE
 10
396.17367101500002
 20
33.006773657499998
 30
0.0
 42
0.09787516
  0
VERTEX
  5
1DE5
  8
WHITE
 10
393.96826806749988
 20
35.27301193000001
 30
0.0
  0
VERTEX
  5
1DE6
  8
WHITE
 10
393.67914955999993
 20
35.463526697500001
 30
0.0
  0
VERTEX
  5
1DE7
  8
WHITE
 10
393.38220418750001
 20
35.64159643499999
 30
0.0
  0
SEQEND
  5
1DE8
  8
WHITE
  0
POLYLINE
  5
7CA
  8
WHITE
 66
     1
 10
0.0
 20
0.0
 30
0.0
 70
     1
  0
VERTEX
  5
1DE9
  8
WHITE
 10
405.90197093500001
 20
118.72664749499999
 30
0.0
 42
-0.12069699
  0
VERTEX
  5
1DEA
  8
WHITE
 10
404.30963992749992
 20
121.3314483275
 30
0.0
 42
0.26129316
  0
VERTEX
  5
1DEB
  8
WHITE
 10
403.07357415500002
 20
122.48568765
 30
0.0
  0
VERTEX
  5
1DEC
  8
WHITE
 10
398.21625818500002
 20
123.6744616875
 30
0.0
 42
-0.40429777
  0
VERTEX
  5
1DED
  8
WHITE
 10
397.57571530000001
 20
124.69079772249999
 30
0.0
  0
VERTEX
  5
1DEE
  8
WHITE
 10
398.68861269249999
 20
130.01529557000001
 30
0.0
 42
-0.26119744
  0
VERTEX
  5
1DEF
  8
WHITE
 10
399.2441151575
 20
130.65247031499999
 30
0.0
  0
VERTEX
  5
1DF0
  8
WHITE
 10
401.78185426999988
 20
131.55813953500001
 30
0.0
 42
-0.10650505
  0
VERTEX
  5
1DF1
  8
WHITE
 10
402.86477568750001
 20
131.7003579725
 30
0.0
  0
VERTEX
  5
1DF2
  8
WHITE
 10
406.14616777250001
 20
131.43190304999999
 30
0.0
 42
0.23165266
  0
VERTEX
  5
1DF3
  8
WHITE
 10
408.26904630000001
 20
132.264205825
 30
0.0
 42
0.23165266
  0
VERTEX
  5
1DF4
  8
WHITE
 10
408.91364586999993
 20
134.45140322750001
 30
0.0
  0
VERTEX
  5
1DF5
  8
WHITE
 10
408.33737296999988
 20
137.83542944999999
 30
0.0
 42
-0.38540513
  0
VERTEX
  5
1DF6
  8
WHITE
 10
408.96050753499981
 20
138.8139486325
 30
0.0
 42
-0.13481993
  0
VERTEX
  5
1DF7
  8
WHITE
 10
416.10210936999988
 20
138.8139489575
 30
0.0
 42
-0.38540511
  0
VERTEX
  5
1DF8
  8
WHITE
 10
416.72524357999993
 20
137.83542961500001
 30
0.0
  0
VERTEX
  5
1DF9
  8
WHITE
 10
416.148970905
 20
134.45140322750001
 30
0.0
 42
0.23165266
  0
VERTEX
  5
1DFA
  8
WHITE
 10
416.79357047249999
 20
132.264205825
 30
0.0
 42
0.23165266
  0
VERTEX
  5
1DFB
  8
WHITE
 10
418.916449
 20
131.43190304999999
 30
0.0
  0
VERTEX
  5
1DFC
  8
WHITE
 10
422.19784094250002
 20
131.70035755999999
 30
0.0
 42
-0.10650506
  0
VERTEX
  5
1DFD
  8
WHITE
 10
423.28076256499992
 20
131.55813975749999
 30
0.0
  0
VERTEX
  5
1DFE
  8
WHITE
 10
425.81850167999988
 20
130.65247049749999
 30
0.0
 42
-0.26119743
  0
VERTEX
  5
1DFF
  8
WHITE
 10
426.37400397250002
 20
130.01529554999999
 30
0.0
  0
VERTEX
  5
1E00
  8
WHITE
 10
427.48690155249989
 20
124.6907978725
 30
0.0
 42
-0.40429777
  0
VERTEX
  5
1E01
  8
WHITE
 10
426.84635858749988
 20
123.67446167750001
 30
0.0
  0
VERTEX
  5
1E02
  8
WHITE
 10
421.98904261749988
 20
122.48568765
 30
0.0
 42
0.26129322
  0
VERTEX
  5
1E03
  8
WHITE
 10
420.75297657499999
 20
121.331448045
 30
0.0
 42
-0.38705108
  0
VERTEX
  5
1E04
  8
WHITE
 10
413.2723141125
 20
117.0109872275
 30
0.0
 42
-0.35260019
  0
VERTEX
  5
1E05
  8
WHITE
 10
413.13630838749992
 20
117.179870515
 30
0.0
  0
VERTEX
  5
1E06
  8
WHITE
 10
413.13630838749992
 20
123.9514626575
 30
0.0
 42
0.4142133700000001
  0
VERTEX
  5
1E07
  8
WHITE
 10
412.96345124499987
 20
124.12431979999999
 30
0.0
  0
VERTEX
  5
1E08
  8
WHITE
 10
411.79666544499992
 20
124.12431979999999
 30
0.0
 42
0.41421342
  0
VERTEX
  5
1E09
  8
WHITE
 10
411.62380838749999
 20
123.9514626575
 30
0.0
  0
VERTEX
  5
1E0A
  8
WHITE
 10
411.62380838749999
 20
117.1216427225
 30
0.0
 42
-0.36653288
  0
VERTEX
  5
1E0B
  8
WHITE
 10
411.47942678499987
 20
116.95114703500001
 30
0.0
 42
-0.21226215
  0
VERTEX
  5
1E0C
  8
WHITE
 10
406.43273412249988
 20
118.2549859475
 30
0.0
  0
VERTEX
  5
1E0D
  8
WHITE
 10
406.29518390999999
 20
118.3673561725
 30
0.0
  0
VERTEX
  5
1E0E
  8
WHITE
 10
406.16082244
 20
118.4834683775
 30
0.0
  0
VERTEX
  5
1E0F
  8
WHITE
 10
406.02972601499988
 20
118.60325475499999
 30
0.0
  0
VERTEX
  5
1E10
  8
WHITE
 10
405.90197093500001
 20
118.72664749499999
 30
0.0
  0
SEQEND
  5
1E11
  8
WHITE
  0
POLYLINE
  5
7F4
  8
WHITE
 66
     1
 10
0.0
 20
0.0
 30
0.0
 70
     1
  0
VERTEX
  5
1E12
  8
WHITE
 10
424.97423698749992
 20
194.76232583999999
 30
0.0
 42
-0.27372048
  0
VERTEX
  5
1E13
  8
WHITE
 10
417.85339058
 20
190.37556528249999
 30
0.0
 42
-0.41943119
  0
VERTEX
  5
1E14
  8
WHITE
 10
417.67745999499988
 20
190.54839509999999
 30
0.0
  0
VERTEX
  5
1E15
  8
WHITE
 10
417.67745999499988
 20
196.78347065
 30
0.0
 42
0.4142135500000001
  0
VERTEX
  5
1E16
  8
WHITE
 10
417.50460285999981
 20
196.95632779249999
 30
0.0
  0
VERTEX
  5
1E17
  8
WHITE
 10
416.3378171375
 20
196.95632779249999
 30
0.0
 42
0.4142133700000001
  0
VERTEX
  5
1E18
  8
WHITE
 10
416.164959995
 20
196.78347065
 30
0.0
  0
VERTEX
  5
1E19
  8
WHITE
 10
416.164959995
 20
190.54870883500001
 30
0.0
 42
-0.4084105100000002
  0
VERTEX
  5
1E1A
  8
WHITE
 10
415.99553437750001
 20
190.37588565499999
 30
0.0
 42
-0.28386046
  0
VERTEX
  5
1E1B
  8
WHITE
 10
408.56568306499992
 20
194.762325715
 30
0.0
 42
0.28018049
  0
VERTEX
  5
1E1C
  8
WHITE
 10
400.36010380750002
 20
197.57400272500001
 30
0.0
 42
-0.20273307
  0
VERTEX
  5
1E1D
  8
WHITE
 10
399.69823617750001
 20
197.69704779750001
 30
0.0
 42
-0.20273307
  0
VERTEX
  5
1E1E
  8
WHITE
 10
399.32542530500001
 20
198.2576019
 30
0.0
 42
-0.08724201
  0
VERTEX
  5
1E1F
  8
WHITE
 10
399.2417431975
 20
204.78883873000001
 30
0.0
 42
-0.4014655400000002
  0
VERTEX
  5
1E20
  8
WHITE
 10
400.19614915749992
 20
205.5084172174999
 30
0.0
  0
VERTEX
  5
1E21
  8
WHITE
 10
409.79293837249992
 20
204.37547044999991
 30
0.0
 42
0.22974407
  0
VERTEX
  5
1E22
  8
WHITE
 10
412.2874285725
 20
205.24144973750001
 30
0.0
 42
0.22974407
  0
VERTEX
  5
1E23
  8
WHITE
 10
413.15145103750001
 20
207.7366185875
 30
0.0
  0
VERTEX
  5
1E24
  8
WHITE
 10
412.44853130500002
 20
213.65094124250001
 30
0.0
 42
-0.19844946
  0
VERTEX
  5
1E25
  8
WHITE
 10
421.09138868249988
 20
213.65094124250001
 30
0.0
  0
VERTEX
  5
1E26
  8
WHITE
 10
420.38847017999979
 20
207.73661882249999
 30
0.0
 42
0.22974407
  0
VERTEX
  5
1E27
  8
WHITE
 10
421.25249202499992
 20
205.24145035000001
 30
0.0
 42
0.22974407
  0
VERTEX
  5
1E28
  8
WHITE
 10
423.74698157749992
 20
204.3754709625
 30
0.0
  0
VERTEX
  5
1E29
  8
WHITE
 10
433.34377077999989
 20
205.50841765000001
 30
0.0
 42
-0.4014655400000002
  0
VERTEX
  5
1E2A
  8
WHITE
 10
434.29817645249989
 20
204.7888386699999
 30
0.0
 42
-0.08724201
  0
VERTEX
  5
1E2B
  8
WHITE
 10
434.21449383250001
 20
198.25760206250001
 30
0.0
 42
-0.20273307
  0
VERTEX
  5
1E2C
  8
WHITE
 10
433.84168333249988
 20
197.69704851750001
 30
0.0
 42
-0.20273307
  0
VERTEX
  5
1E2D
  8
WHITE
 10
433.17981620249992
 20
197.5740028475
 30
0.0
 42
0.25797203
  0
VERTEX
  5
1E2E
  8
WHITE
 10
425.43814894500002
 20
195.2747567875
 30
0.0
  0
VERTEX
  5
1E2F
  8
WHITE
 10
425.31207773749992
 20
195.15341384249999
 30
0.0
  0
VERTEX
  5
1E30
  8
WHITE
 10
425.18510157499981
 20
195.0322978275
 30
0.0
  0
VERTEX
  5
1E31
  8
WHITE
 10
425.1248524624998
 20
194.96960455000001
 30
0.0
  0
VERTEX
  5
1E32
  8
WHITE
 10
425.06867110749988
 20
194.90430355749999
 30
0.0
  0
VERTEX
  5
1E33
  8
WHITE
 10
425.01798883750001
 20
194.835506705
 30
0.0
  0
VERTEX
  5
1E34
  8
WHITE
 10
424.97423698749992
 20
194.76232583999999
 30
0.0
  0
SEQEND
  5
1E35
  8
WHITE
  0
POLYLINE
  5
819
  8
WHITE
 66
     1
 10
0.0
 20
0.0
 30
0.0
 70
     1
  0
VERTEX
  5
1E36
  8
WHITE
 10
498.00788371250002
 20
141.9067875675
 30
0.0
 42
-0.23669808
  0
VERTEX
  5
1E37
  8
WHITE
 10
499.95008438249999
 20
123.5244636525
 30
0.0
 42
-0.36099752
  0
VERTEX
  5
1E38
  8
WHITE
 10
499.75826578499988
 20
123.4150570825
 30
0.0
  0
VERTEX
  5
1E39
  8
WHITE
 10
485.18790095000003
 20
125.98420561499999
 30
0.0
 42
0.4142132000000001
  0
VERTEX
  5
1E3A
  8
WHITE
 10
484.98765413749999
 20
125.84399148
 30
0.0
  0
VERTEX
  5
1E3B
  8
WHITE
 10
484.7850435499999
 20
124.6949316
 30
0.0
 42
0.41421315
  0
VERTEX
  5
1E3C
  8
WHITE
 10
484.92525854000002
 20
124.494683925
 30
0.0
  0
VERTEX
  5
1E3D
  8
WHITE
 10
499.49085201499997
 20
121.92637727250001
 30
0.0
 42
-0.22783686
  0
VERTEX
  5
1E3E
  8
WHITE
 10
499.61251511249992
 20
121.8390500525
 30
0.0
 42
-0.22783686
  0
VERTEX
  5
1E3F
  8
WHITE
 10
499.62032635750001
 20
121.6894947925
 30
0.0
 42
-0.20108765
  0
VERTEX
  5
1E40
  8
WHITE
 10
485.03907578500002
 20
107.3202917725
 30
0.0
 42
-0.31427405
  0
VERTEX
  5
1E41
  8
WHITE
 10
483.11251882750003
 20
107.766932365
 30
0.0
 42
0.27400752
  0
VERTEX
  5
1E42
  8
WHITE
 10
477.59544374500001
 20
109.48519711500001
 30
0.0
 42
0.27400752
  0
VERTEX
  5
1E43
  8
WHITE
 10
473.43838901999999
 20
105.47153865999999
 30
0.0
 42
-0.08386474
  0
VERTEX
  5
1E44
  8
WHITE
 10
470.24226807500003
 20
103.2868503575
 30
0.0
 42
0.31196994
  0
VERTEX
  5
1E45
  8
WHITE
 10
466.81732260249993
 20
101.9020134925
 30
0.0
 42
0.31196994
  0
VERTEX
  5
1E46
  8
WHITE
 10
466.90247716250002
 20
98.208671675000005
 30
0.0
 42
-0.37998501
  0
VERTEX
  5
1E47
  8
WHITE
 10
462.61252330000002
 20
90.703278280000006
 30
0.0
 42
0.38005663
  0
VERTEX
  5
1E48
  8
WHITE
 10
459.64953798750003
 20
89.036272532500007
 30
0.0
 42
0.38005663
  0
VERTEX
  5
1E49
  8
WHITE
 10
460.95609756250002
 20
85.897627569999997
 30
0.0
 42
-0.38937995
  0
VERTEX
  5
1E4A
  8
WHITE
 10
457.35009053749991
 20
78.447419870000004
 30
0.0
 42
0.28552382
  0
VERTEX
  5
1E4B
  8
WHITE
 10
455.40670514499988
 20
76.630659914999995
 30
0.0
 42
0.28552382
  0
VERTEX
  5
1E4C
  8
WHITE
 10
456.17617934750001
 20
74.084039342500006
 30
0.0
 42
-0.22784148
  0
VERTEX
  5
1E4D
  8
WHITE
 10
456.61672028999988
 20
68.422560557500006
 30
0.0
 42
-0.22784148
  0
VERTEX
  5
1E4E
  8
WHITE
 10
452.47099736500002
 20
64.541916307500003
 30
0.0
 42
0.25699656
  0
VERTEX
  5
1E4F
  8
WHITE
 10
450.7653040225
 20
62.009624315000003
 30
0.0
 42
0.25699656
  0
VERTEX
  5
1E50
  8
WHITE
 10
451.99195298500001
 20
59.213693695000003
 30
0.0
 42
-0.35023882
  0
VERTEX
  5
1E51
  8
WHITE
 10
450.81006273749989
 20
47.677741277499997
 30
0.0
 42
0.20334244
  0
VERTEX
  5
1E52
  8
WHITE
 10
449.95214608499992
 20
46.3194641125
 30
0.0
 42
0.20334244
  0
VERTEX
  5
1E53
  8
WHITE
 10
450.332591315
 20
44.758631237499991
 30
0.0
 42
0.20334244
  0
VERTEX
  5
1E54
  8
WHITE
 10
451.71929781749998
 20
43.947469777499983
 30
0.0
 42
0.20334244
  0
VERTEX
  5
1E55
  8
WHITE
 10
453.26626897
 20
44.380849935000001
 30
0.0
 42
-0.37511989
  0
VERTEX
  5
1E56
  8
WHITE
 10
459.22900357999993
 20
39.26132439749999
 30
0.0
 42
-0.3752268
  0
VERTEX
  5
1E57
  8
WHITE
 10
464.85733814249988
 20
31.265773984999999
 30
0.0
  0
VERTEX
  5
1E58
  8
WHITE
 10
463.86035788750002
 20
18.456861360000001
 30
0.0
 42
-0.21152906
  0
VERTEX
  5
1E59
  8
WHITE
 10
463.79390691999993
 20
18.333644507500001
 30
0.0
 42
-0.21152906
  0
VERTEX
  5
1E5A
  8
WHITE
 10
463.65800535749992
 20
18.300043864999999
 30
0.0
  0
VERTEX
  5
1E5B
  8
WHITE
 10
443.63063936499981
 20
21.831408122500001
 30
0.0
 42
-0.41421335
  0
VERTEX
  5
1E5C
  8
WHITE
 10
443.49042495250001
 20
22.031655884999999
 30
0.0
  0
VERTEX
  5
1E5D
  8
WHITE
 10
445.18018005750002
 20
31.614736072500001
 30
0.0
 42
0.41421326
  0
VERTEX
  5
1E5E
  8
WHITE
 10
445.03996580249981
 20
31.814982905000001
 30
0.0
  0
VERTEX
  5
1E5F
  8
WHITE
 10
443.89090604500001
 20
32.017593472500003
 30
0.0
 42
0.41421325
  0
VERTEX
  5
1E60
  8
WHITE
 10
443.69065837749991
 20
31.8773785325
 30
0.0
  0
VERTEX
  5
1E61
  8
WHITE
 10
442.00090379250003
 20
22.294299049999989
 30
0.0
 42
-0.4142134300000002
  0
VERTEX
  5
1E62
  8
WHITE
 10
441.80065642999989
 20
22.154084395000002
 30
0.0
  0
VERTEX
  5
1E63
  8
WHITE
 10
418.59326642749988
 20
26.246173299999992
 30
0.0
 42
-0.32479457
  0
VERTEX
  5
1E64
  8
WHITE
 10
418.46059993749992
 20
29.2450385225
 30
0.0
 42
-0.25467216
  0
VERTEX
  5
1E65
  8
WHITE
 10
417.56434617500003
 20
32.486597185000001
 30
0.0
 42
-0.25467216
  0
VERTEX
  5
1E66
  8
WHITE
 10
419.80146596750001
 20
34.997826525000001
 30
0.0
  0
VERTEX
  5
1E67
  8
WHITE
 10
427.91327435749992
 20
34.313911592499998
 30
0.0
 42
0.4142132800000001
  0
VERTEX
  5
1E68
  8
WHITE
 10
428.10004297249992
 20
34.471635297500001
 30
0.0
  0
VERTEX
  5
1E69
  8
WHITE
 10
428.19806773750003
 20
35.634295572500001
 30
0.0
 42
0.41421344
  0
VERTEX
  5
1E6A
  8
WHITE
 10
428.04034398750002
 20
35.821064190000001
 30
0.0
  0
VERTEX
  5
1E6B
  8
WHITE
 10
420.22012480249992
 20
36.480396284999991
 30
0.0
 42
-0.22209401
  0
VERTEX
  5
1E6C
  8
WHITE
 10
418.52912183749987
 20
42.442882937500002
 30
0.0
 42
-0.22209401
  0
VERTEX
  5
1E6D
  8
WHITE
 10
422.0174988024998
 20
47.565574054999992
 30
0.0
  0
VERTEX
  5
1E6E
  8
WHITE
 10
430.04321056499992
 20
46.159646514999991
 30
0.0
 42
0.41421357
  0
VERTEX
  5
1E6F
  8
WHITE
 10
430.24330146749992
 20
46.30008422249999
 30
0.0
  0
VERTEX
  5
1E70
  8
WHITE
 10
430.4446306575
 20
47.449369092499992
 30
0.0
 42
0.41421357
  0
VERTEX
  5
1E71
  8
WHITE
 10
430.3041929499999
 20
47.649459997500003
 30
0.0
  0
VERTEX
  5
1E72
  8
WHITE
 10
422.60496254999993
 20
48.998196065000002
 30
0.0
 42
-0.2520011
  0
VERTEX
  5
1E73
  8
WHITE
 10
421.35511773500002
 20
55.252347954999998
 30
0.0
 42
-0.2520011
  0
VERTEX
  5
1E74
  8
WHITE
 10
425.88652003750002
 20
59.7404341425
 30
0.0
  0
VERTEX
  5
1E75
  8
WHITE
 10
432.70184158000001
 20
58.104637734999997
 30
0.0
 42
0.41421353
  0
VERTEX
  5
1E76
  8
WHITE
 10
432.91026812749988
 20
58.232378445000002
 30
0.0
  0
VERTEX
  5
1E77
  8
WHITE
 10
433.1825832225
 20
59.366940849999999
 30
0.0
 42
0.41421348
  0
VERTEX
  5
1E78
  8
WHITE
 10
433.05484339999992
 20
59.575367392499999
 30
0.0
  0
VERTEX
  5
1E79
  8
WHITE
 10
425.77497015499989
 20
61.3226643725
 30
0.0
 42
-0.25784773
  0
VERTEX
  5
1E7A
  8
WHITE
 10
424.9653383924998
 20
66.826871220000001
 30
0.0
 42
-0.25784773
  0
VERTEX
  5
1E7B
  8
WHITE
 10
429.19371076250002
 20
70.442485097499997
 30
0.0
  0
VERTEX
  5
1E7C
  8
WHITE
 10
436.4094354225
 20
68.718256449999998
 30
0.0
 42
0.4142135200000002
  0
VERTEX
  5
1E7D
  8
WHITE
 10
436.61773305499992
 20
68.846206837500006
 30
0.0
  0
VERTEX
  5
1E7E
  8
WHITE
 10
436.88890656500001
 20
69.981042700000003
 30
0.0
 42
0.41421341
  0
VERTEX
  5
1E7F
  8
WHITE
 10
436.76095713000001
 20
70.189341177499983
 30
0.0
  0
VERTEX
  5
1E80
  8
WHITE
 10
429.92700389499993
 20
71.822342914999993
 30
0.0
 42
-0.29790645
  0
VERTEX
  5
1E81
  8
WHITE
 10
429.03772105999991
 20
77.933521775000003
 30
0.0
 42
-0.29790645
  0
VERTEX
  5
1E82
  8
WHITE
 10
434.27927795750003
 20
81.199008877500006
 30
0.0
  0
VERTEX
  5
1E83
  8
WHITE
 10
440.06850221500002
 20
79.638846115000007
 30
0.0
 42
0.41421348
  0
VERTEX
  5
1E84
  8
WHITE
 10
440.28038390749992
 20
79.760769917499999
 30
0.0
  0
VERTEX
  5
1E85
  8
WHITE
 10
440.583994195
 20
80.887362142499995
 30
0.0
 42
0.4142131800000002
  0
VERTEX
  5
1E86
  8
WHITE
 10
440.46207049499992
 20
81.099243807499988
 30
0.0
  0
VERTEX
  5
1E87
  8
WHITE
 10
435.1706486574999
 20
82.525250984999985
 30
0.0
 42
-0.27114201
  0
VERTEX
  5
1E88
  8
WHITE
 10
433.36381777749989
 20
88.446046482499995
 30
0.0
 42
-0.27114201
  0
VERTEX
  5
1E89
  8
WHITE
 10
437.64153818250003
 20
92.920592697499998
 30
0.0
 42
-0.15853456
  0
VERTEX
  5
1E8A
  8
WHITE
 10
437.74839635749993
 20
92.916730985000001
 30
0.0
  0
VERTEX
  5
1E8B
  8
WHITE
 10
444.78142628749993
 20
90.344901914999994
 30
0.0
 42
0.4142133000000002
  0
VERTEX
  5
1E8C
  8
WHITE
 10
445.00313468500002
 20
90.447879415000003
 30
0.0
  0
VERTEX
  5
1E8D
  8
WHITE
 10
445.40385201499993
 20
91.543697315000003
 30
0.0
 42
0.4142134900000001
  0
VERTEX
  5
1E8E
  8
WHITE
 10
445.30087437499981
 20
91.765405764999997
 30
0.0
  0
VERTEX
  5
1E8F
  8
WHITE
 10
438.58265392750002
 20
94.222115132499994
 30
0.0
 42
-0.18234711
  0
VERTEX
  5
1E90
  8
WHITE
 10
438.490220405
 20
94.301774287499995
 30
0.0
 42
-0.25772269
  0
VERTEX
  5
1E91
  8
WHITE
 10
438.52339517500002
 20
100.11514189250001
 30
0.0
 42
-0.25772269
  0
VERTEX
  5
1E92
  8
WHITE
 10
443.4607184825
 20
103.18420976
 30
0.0
  0
VERTEX
  5
1E93
  8
WHITE
 10
449.35684422999992
 20
100.62800912749999
 30
0.0
 42
0.4142132700000002
  0
VERTEX
  5
1E94
  8
WHITE
 10
449.58419486000003
 20
100.7178470075
 30
0.0
  0
VERTEX
  5
1E95
  8
WHITE
 10
450.04830304999979
 20
101.7883576425
 30
0.0
 42
0.41421309
  0
VERTEX
  5
1E96
  8
WHITE
 10
449.9584651574998
 20
102.01570828
 30
0.0
  0
VERTEX
  5
1E97
  8
WHITE
 10
444.16465644499999
 20
104.5275487275
 30
0.0
 42
-0.3925098
  0
VERTEX
  5
1E98
  8
WHITE
 10
449.72381298749991
 20
115.36090735499999
 30
0.0
 42
-0.20307306
  0
VERTEX
  5
1E99
  8
WHITE
 10
449.85847998000003
 20
115.3538871725
 30
0.0
  0
VERTEX
  5
1E9A
  8
WHITE
 10
456.64140377249993
 20
112.054097035
 30
0.0
 42
0.21374203
  0
VERTEX
  5
1E9B
  8
WHITE
 10
456.7826638025
 20
112.0496273775
 30
0.0
 42
0.21374203
  0
VERTEX
  5
1E9C
  8
WHITE
 10
456.88004300749998
 20
112.15205598750001
 30
0.0
  0
VERTEX
  5
1E9D
  8
WHITE
 10
457.27056055749989
 20
113.2596053425
 30
0.0
 42
0.38126405
  0
VERTEX
  5
1E9E
  8
WHITE
 10
457.18315873249992
 20
113.47252483
 30
0.0
  0
VERTEX
  5
1E9F
  8
WHITE
 10
450.85207213249993
 20
116.5525038425
 30
0.0
 42
-0.20286567
  0
VERTEX
  5
1EA0
  8
WHITE
 10
450.0071313424998
 20
121.93148872
 30
0.0
 42
-0.20286567
  0
VERTEX
  5
1EA1
  8
WHITE
 10
453.27970561249998
 20
126.2832309825
 30
0.0
 42
-0.23786895
  0
VERTEX
  5
1EA2
  8
WHITE
 10
453.4350997549999
 20
126.2923553175
 30
0.0
  0
VERTEX
  5
1EA3
  8
WHITE
 10
461.02066256500001
 20
123.0097801575
 30
0.0
 42
0.4142132800000001
  0
VERTEX
  5
1EA4
  8
WHITE
 10
461.24795308749992
 20
123.09977050249999
 30
0.0
  0
VERTEX
  5
1EA5
  8
WHITE
 10
461.71134093749998
 20
124.1705927925
 30
0.0
 42
0.41421357
  0
VERTEX
  5
1EA6
  8
WHITE
 10
461.62135044000001
 20
124.39788338
 30
0.0
  0
VERTEX
  5
1EA7
  8
WHITE
 10
454.31796825999987
 20
127.558347685
 30
0.0
 42
-0.25562441
  0
VERTEX
  5
1EA8
  8
WHITE
 10
454.04256348000001
 20
132.83129306000001
 30
0.0
 42
-0.25562441
  0
VERTEX
  5
1EA9
  8
WHITE
 10
458.33405721499997
 20
135.90747265749999
 30
0.0
  0
VERTEX
  5
1EAA
  8
WHITE
 10
465.23835524499992
 20
134.71635297750001
 30
0.0
 42
0.41421357
  0
VERTEX
  5
1EAB
  8
WHITE
 10
465.43808352000002
 20
134.85730723750001
 30
0.0
  0
VERTEX
  5
1EAC
  8
WHITE
 10
465.636445245
 20
136.007107515
 30
0.0
 42
0.41421356
  0
VERTEX
  5
1EAD
  8
WHITE
 10
465.49549098749998
 20
136.20683579000001
 30
0.0
  0
VERTEX
  5
1EAE
  8
WHITE
 10
458.86085750749982
 20
137.35143307249999
 30
0.0
 42
-0.26532092
  0
VERTEX
  5
1EAF
  8
WHITE
 10
458.72862596750002
 20
137.46046357500001
 30
0.0
 42
-0.27740366
  0
VERTEX
  5
1EB0
  8
WHITE
 10
460.55864501250011
 20
147.59648405749999
 30
0.0
 42
-0.24736204
  0
VERTEX
  5
1EB1
  8
WHITE
 10
460.70914222999988
 20
147.65416261749999
 30
0.0
  0
VERTEX
  5
1EB2
  8
WHITE
 10
468.18688669999989
 20
146.7600724225
 30
0.0
 42
0.41421357
  0
VERTEX
  5
1EB3
  8
WHITE
 10
468.3790437975
 20
146.9111856525
 30
0.0
  0
VERTEX
  5
1EB4
  8
WHITE
 10
468.51756587249992
 20
148.06971937750001
 30
0.0
 42
0.4142135800000001
  0
VERTEX
  5
1EB5
  8
WHITE
 10
468.36645263749989
 20
148.26187561250001
 30
0.0
  0
VERTEX
  5
1EB6
  8
WHITE
 10
461.10646950749998
 20
149.1299287025
 30
0.0
 42
-0.2322048
  0
VERTEX
  5
1EB7
  8
WHITE
 10
460.97865465500001
 20
149.21281748000001
 30
0.0
 42
-0.37759909
  0
VERTEX
  5
1EB8
  8
WHITE
 10
462.44801327250002
 20
157.15466903999999
 30
0.0
 42
-0.15844546
  0
VERTEX
  5
1EB9
  8
WHITE
 10
462.54835058250001
 20
157.19146309499999
 30
0.0
  0
VERTEX
  5
1EBA
  8
WHITE
 10
469.89333414499998
 20
157.4648153725
 30
0.0
 42
0.41421351
  0
VERTEX
  5
1EBB
  8
WHITE
 10
470.05964314750003
 20
157.64398184250001
 30
0.0
  0
VERTEX
  5
1EBC
  8
WHITE
 10
470.016250265
 20
158.80996027250001
 30
0.0
 42
0.41421342
  0
VERTEX
  5
1EBD
  8
WHITE
 10
469.83708380249999
 20
158.97626927499999
 30
0.0
  0
VERTEX
  5
1EBE
  8
WHITE
 10
462.91264280000001
 20
158.71856755249999
 30
0.0
 42
-0.14624066
  0
VERTEX
  5
1EBF
  8
WHITE
 10
462.81680209000001
 20
158.74336909749999
 30
0.0
 42
-0.27910988
  0
VERTEX
  5
1EC0
  8
WHITE
 10
460.12483372499992
 20
163.87920321249999
 30
0.0
 42
-0.27910988
  0
VERTEX
  5
1EC1
  8
WHITE
 10
463.42736750749992
 20
168.645412935
 30
0.0
  0
VERTEX
  5
1EC2
  8
WHITE
 10
468.543123665
 20
169.161438535
 30
0.0
 42
0.4142134000000002
  0
VERTEX
  5
1EC3
  8
WHITE
 10
468.69776013749998
 20
169.3507707375
 30
0.0
  0
VERTEX
  5
1EC4
  8
WHITE
 10
468.58066045750002
 20
170.511665435
 30
0.0
 42
0.4142135500000001
  0
VERTEX
  5
1EC5
  8
WHITE
 10
468.39132816249997
 20
170.66630190000001
 30
0.0
  0
VERTEX
  5
1EC6
  8
WHITE
 10
463.2755711675
 20
170.15027469250001
 30
0.0
 42
-0.28122844
  0
VERTEX
  5
1EC7
  8
WHITE
 10
460.29426925000001
 20
174.94546506500001
 30
0.0
 42
-0.28122844
  0
VERTEX
  5
1EC8
  8
WHITE
 10
463.19897648
 20
179.78743653750001
 30
0.0
  0
VERTEX
  5
1EC9
  8
WHITE
 10
467.11631068000003
 20
181.1316383775
 30
0.0
 42
0.41421345
  0
VERTEX
  5
1ECA
  8
WHITE
 10
467.22370653000002
 20
181.35124132249999
 30
0.0
  0
VERTEX
  5
1ECB
  8
WHITE
 10
466.84500793749987
 20
182.45486067249999
 30
0.0
 42
0.41421346
  0
VERTEX
  5
1ECC
  8
WHITE
 10
466.62540499250002
 20
182.56225652250001
 30
0.0
  0
VERTEX
  5
1ECD
  8
WHITE
 10
461.87939783749988
 20
180.93370312249999
 30
0.0
 42
-0.31724901
  0
VERTEX
  5
1ECE
  8
WHITE
 10
457.05467403
 20
183.65121511000001
 30
0.0
 42
-0.31724901
  0
VERTEX
  5
1ECF
  8
WHITE
 10
457.99686651500002
 20
189.10787195
 30
0.0
  0
VERTEX
  5
1ED0
  8
WHITE
 10
463.59659008
 20
192.07167706499999
 30
0.0
 42
0.41421356
  0
VERTEX
  5
1ED1
  8
WHITE
 10
463.66850593999999
 20
192.30531677499999
 30
0.0
  0
VERTEX
  5
1ED2
  8
WHITE
 10
463.12268925749993
 20
193.33656525750001
 30
0.0
 42
0.41421335
  0
VERTEX
  5
1ED3
  8
WHITE
 10
462.88905041250001
 20
193.4084811175
 30
0.0
  0
VERTEX
  5
1ED4
  8
WHITE
 10
458.13577951500002
 20
190.89268393250001
 30
0.0
 42
-0.3369768
  0
VERTEX
  5
1ED5
  8
WHITE
 10
452.25485980249988
 20
193.1925764575
 30
0.0
 42
-0.3369768
  0
VERTEX
  5
1ED6
  8
WHITE
 10
452.89845632250001
 20
199.47433606499999
 30
0.0
  0
VERTEX
  5
1ED7
  8
WHITE
 10
457.64742456499999
 20
202.2395343725
 30
0.0
 42
0.4142130800000002
  0
VERTEX
  5
1ED8
  8
WHITE
 10
457.70982386499992
 20
202.475893485
 30
0.0
  0
VERTEX
  5
1ED9
  8
WHITE
 10
457.12271238749992
 20
203.48420346500001
 30
0.0
 42
0.41421357
  0
VERTEX
  5
1EDA
  8
WHITE
 10
456.88635313750001
 20
203.5466026849999
 30
0.0
  0
VERTEX
  5
1EDB
  8
WHITE
 10
451.46608336000003
 20
200.3905228875
 30
0.0
 42
-0.33057936
  0
VERTEX
  5
1EDC
  8
WHITE
 10
445.5754400225
 20
203.01292368
 30
0.0
 42
-0.33057936
  0
VERTEX
  5
1EDD
  8
WHITE
 10
446.38012545750001
 20
209.4105127725
 30
0.0
  0
VERTEX
  5
1EDE
  8
WHITE
 10
450.0145129375
 20
211.58323475
 30
0.0
 42
0.41421356
  0
VERTEX
  5
1EDF
  8
WHITE
 10
450.07418254250001
 20
211.82029732000001
 30
0.0
  0
VERTEX
  5
1EE0
  8
WHITE
 10
449.47547954499993
 20
212.82176827750001
 30
0.0
 42
0.4142131700000001
  0
VERTEX
  5
1EE1
  8
WHITE
 10
449.23841698249993
 20
212.88143789
 30
0.0
  0
VERTEX
  5
1EE2
  8
WHITE
 10
444.89265380749981
 20
210.28343892250001
 30
0.0
 42
-0.28224993
  0
VERTEX
  5
1EE3
  8
WHITE
 10
438.63220400249992
 20
210.95315880000001
 30
0.0
 42
-0.28224993
  0
VERTEX
  5
1EE4
  8
WHITE
 10
436.3915560649998
 20
216.83714140000001
 30
0.0
 42
-0.21373944
  0
VERTEX
  5
1EE5
  8
WHITE
 10
436.47222664499992
 20
216.95318512
 30
0.0
  0
VERTEX
  5
1EE6
  8
WHITE
 10
442.21545620749993
 20
220.41284242750001
 30
0.0
 42
0.4142134900000001
  0
VERTEX
  5
1EE7
  8
WHITE
 10
442.27432943000002
 20
220.6501043275
 30
0.0
  0
VERTEX
  5
1EE8
  8
WHITE
 10
441.67226905749982
 20
221.6495600925
 30
0.0
 42
0.41421324
  0
VERTEX
  5
1EE9
  8
WHITE
 10
441.43500716
 20
221.70843331500001
 30
0.0
  0
VERTEX
  5
1EEA
  8
WHITE
 10
435.6260300925
 20
218.20917072
 30
0.0
 42
-0.32475251
  0
VERTEX
  5
1EEB
  8
WHITE
 10
430.95952650750002
 20
219.65871838499999
 30
0.0
 42
-0.32475251
  0
VERTEX
  5
1EEC
  8
WHITE
 10
430.89314372249987
 20
224.54472263
 30
0.0
 42
-0.10259606
  0
VERTEX
  5
1EED
  8
WHITE
 10
430.94441769999992
 20
224.59266988499991
 30
0.0
  0
VERTEX
  5
1EEE
  8
WHITE
 10
436.09085279499999
 20
227.7296821775
 30
0.0
 42
0.41421344
  0
VERTEX
  5
1EEF
  8
WHITE
 10
436.14848236249992
 20
227.96724915999991
 30
0.0
  0
VERTEX
  5
1EF0
  8
WHITE
 10
435.54119473749989
 20
228.96353732750001
 30
0.0
 42
0.4142133000000002
  0
VERTEX
  5
1EF1
  8
WHITE
 10
435.30362775499992
 20
229.0211668975
 30
0.0
  0
VERTEX
  5
1EF2
  8
WHITE
 10
431.13241972249989
 20
226.47860527249989
 30
0.0
 42
-0.27228763
  0
VERTEX
  5
1EF3
  8
WHITE
 10
423.54111066999991
 20
227.66800704249999
 30
0.0
 42
-0.27228763
  0
VERTEX
  5
1EF4
  8
WHITE
 10
420.89181320499989
 20
234.88076499499999
 30
0.0
 42
-0.21385834
  0
VERTEX
  5
1EF5
  8
WHITE
 10
420.97177574499989
 20
234.99738469249999
 30
0.0
  0
VERTEX
  5
1EF6
  8
WHITE
 10
426.47840277249981
 20
238.3612737149999
 30
0.0
 42
0.41421322
  0
VERTEX
  5
1EF7
  8
WHITE
 10
426.53580260000001
 20
238.59889619500001
 30
0.0
  0
VERTEX
  5
1EF8
  8
WHITE
 10
425.92754940750001
 20
239.59459559999999
 30
0.0
 42
0.4142134000000002
  0
VERTEX
  5
1EF9
  8
WHITE
 10
425.68992675499987
 20
239.65199446
 30
0.0
  0
VERTEX
  5
1EFA
  8
WHITE
 10
420.51238109499991
 20
236.4891349225
 30
0.0
 42
-0.15242189
  0
VERTEX
  5
1EFB
  8
WHITE
 10
420.41248272500002
 20
236.46406617
 30
0.0
 42
-0.25999618
  0
VERTEX
  5
1EFC
  8
WHITE
 10
415.22743751500002
 20
239.75381056750001
 30
0.0
 42
-0.25999618
  0
VERTEX
  5
1EFD
  8
WHITE
 10
415.30137036249988
 20
245.89397707250001
 30
0.0
 42
-0.14267836
  0
VERTEX
  5
1EFE
  8
WHITE
 10
415.37100985000001
 20
245.9610443075
 30
0.0
  0
VERTEX
  5
1EFF
  8
WHITE
 10
419.58975954999988
 20
248.1742319725
 30
0.0
 42
0.41421336
  0
VERTEX
  5
1F00
  8
WHITE
 10
419.66252916749988
 20
248.40760653000001
 30
0.0
  0
VERTEX
  5
1F01
  8
WHITE
 10
419.12048525
 20
249.44084355000001
 30
0.0
 42
0.4142133700000001
  0
VERTEX
  5
1F02
  8
WHITE
 10
418.88711057749993
 20
249.5136122424999
 30
0.0
  0
VERTEX
  5
1F03
  8
WHITE
 10
413.911992715
 20
246.90362912250001
 30
0.0
 42
-0.16227953
  0
VERTEX
  5
1F04
  8
WHITE
 10
413.80408801750002
 20
246.88606171000001
 30
0.0
 42
-0.22162026
  0
VERTEX
  5
1F05
  8
WHITE
 10
409.3787251
 20
249.89131728500001
 30
0.0
 42
-0.22162026
  0
VERTEX
  5
1F06
  8
WHITE
 10
408.83480613249992
 20
255.2129291775
 30
0.0
 42
-0.22983519
  0
VERTEX
  5
1F07
  8
WHITE
 10
408.94161884499999
 20
255.31957958250001
 30
0.0
  0
VERTEX
  5
1F08
  8
WHITE
 10
414.0995332074998
 20
257.10252638499998
 30
0.0
 42
0.41421356
  0
VERTEX
  5
1F09
  8
WHITE
 10
414.2064318175
 20
257.32237197749998
 30
0.0
  0
VERTEX
  5
1F0A
  8
WHITE
 10
413.82523830749989
 20
258.4251315775
 30
0.0
 42
0.41421357
  0
VERTEX
  5
1F0B
  8
WHITE
 10
413.60539272250003
 20
258.532031055
 30
0.0
  0
VERTEX
  5
1F0C
  8
WHITE
 10
408.69381654749981
 20
256.83423538250003
 30
0.0
 42
-0.20843969
  0
VERTEX
  5
1F0D
  8
WHITE
 10
408.55611820749988
 20
256.84502270249999
 30
0.0
 42
-0.21307423
  0
VERTEX
  5
1F0E
  8
WHITE
 10
405.6284560725
 20
260.60366282500001
 30
0.0
 42
-0.21307423
  0
VERTEX
  5
1F0F
  8
WHITE
 10
406.47197109749987
 20
265.29269970249999
 30
0.0
 42
-0.2459224
  0
VERTEX
  5
1F10
  8
WHITE
 10
400.46858481999999
 20
273.07523757749988
 30
0.0
 42
-0.20640913
  0
VERTEX
  5
1F11
  8
WHITE
 10
403.83734346749992
 20
282.18228839250008
 30
0.0
 42
-0.20640913
  0
VERTEX
  5
1F12
  8
WHITE
 10
412.77227203249993
 20
285.98412502000002
 30
0.0
 42
-0.22106459
  0
VERTEX
  5
1F13
  8
WHITE
 10
412.90412429000003
 20
285.92206191499997
 30
0.0
 42
-0.22106459
  0
VERTEX
  5
1F14
  8
WHITE
 10
412.94167210749993
 20
285.78125322749997
 30
0.0
  0
VERTEX
  5
1F15
  8
WHITE
 10
411.50224314499991
 20
277.6178456225
 30
0.0
  0
VERTEX
  5
1F16
  8
WHITE
 10
412.99176524500001
 20
277.35520302250001
 30
0.0
  0
VERTEX
  5
1F17
  8
WHITE
 10
414.42977464249992
 20
285.5105624725
 30
0.0
 42
-0.24801837
  0
VERTEX
  5
1F18
  8
WHITE
 10
414.52892045750002
 20
285.63810999750001
 30
0.0
 42
-0.24801837
  0
VERTEX
  5
1F19
  8
WHITE
 10
414.69015546000003
 20
285.62803338250001
 30
0.0
 42
-0.35521254
  0
VERTEX
  5
1F1A
  8
WHITE
 10
420.34424613750002
 20
269.620396535
 30
0.0
  0
VERTEX
  5
1F1B
  8
WHITE
 10
421.23692649999992
 20
265.37623154250002
 30
0.0
 42
-0.41071906
  0
VERTEX
  5
1F1C
  8
WHITE
 10
422.78569257999999
 20
256.86381560749999
 30
0.0
 42
-0.2051285
  0
VERTEX
  5
1F1D
  8
WHITE
 10
428.28850196500002
 20
254.0845443675
 30
0.0
 42
-0.2051285
  0
VERTEX
  5
1F1E
  8
WHITE
 10
430.07389375749989
 20
248.18389729250001
 30
0.0
 42
-0.33411151
  0
VERTEX
  5
1F1F
  8
WHITE
 10
436.99328111249991
 20
239.2945905849999
 30
0.0
 42
-0.21996802
  0
VERTEX
  5
1F20
  8
WHITE
 10
442.49754331499992
 20
237.35356536750001
 30
0.0
 42
-0.21996802
  0
VERTEX
  5
1F21
  8
WHITE
 10
444.58464224499988
 20
231.9030150525
 30
0.0
 42
0.34669836
  0
VERTEX
  5
1F22
  8
WHITE
 10
445.188896425
 20
231.01999425
 30
0.0
 42
-0.3290264
  0
VERTEX
  5
1F23
  8
WHITE
 10
451.53787030500001
 20
222.3457100725
 30
0.0
 42
0.25222228
  0
VERTEX
  5
1F24
  8
WHITE
 10
452.79687841999993
 20
219.81889414
 30
0.0
 42
0.25222228
  0
VERTEX
  5
1F25
  8
WHITE
 10
455.59958762999992
 20
219.48018813499999
 30
0.0
 42
-0.22626643
  0
VERTEX
  5
1F26
  8
WHITE
 10
458.8997232625
 20
217.83620446750001
 30
0.0
 42
-0.22626643
  0
VERTEX
  5
1F27
  8
WHITE
 10
459.69909396000003
 20
214.23695677250001
 30
0.0
 42
0.30371785
  0
VERTEX
  5
1F28
  8
WHITE
 10
460.35910332499992
 20
211.83807246000001
 30
0.0
 42
0.30371785
  0
VERTEX
  5
1F29
  8
WHITE
 10
462.82837550250002
 20
211.53318299
 30
0.0
 42
-0.31310316
  0
VERTEX
  5
1F2A
  8
WHITE
 10
466.86605917999998
 20
203.36198006500001
 30
0.0
 42
0.27420202
  0
VERTEX
  5
1F2B
  8
WHITE
 10
467.94106665250001
 20
201.4388181875
 30
0.0
 42
0.27420202
  0
VERTEX
  5
1F2C
  8
WHITE
 10
470.1441923299999
 20
201.45955300750001
 30
0.0
 42
-0.20462749
  0
VERTEX
  5
1F2D
  8
WHITE
 10
475.00414757499988
 20
198.02192947750001
 30
0.0
 42
-0.20462749
  0
VERTEX
  5
1F2E
  8
WHITE
 10
475.88077395250002
 20
192.13397896000001
 30
0.0
 42
0.36534615
  0
VERTEX
  5
1F2F
  8
WHITE
 10
474.60087157999999
 20
189.93798167750001
 30
0.0
 42
0.36534615
  0
VERTEX
  5
1F30
  8
WHITE
 10
476.54920641749987
 20
188.30563810999999
 30
0.0
 42
-0.30323601
  0
VERTEX
  5
1F31
  8
WHITE
 10
480.43908462749999
 20
186.4374413825
 30
0.0
 42
-0.30323601
  0
VERTEX
  5
1F32
  8
WHITE
 10
480.20343339999999
 20
182.12863844250001
 30
0.0
 42
0.31324356
  0
VERTEX
  5
1F33
  8
WHITE
 10
479.97633227749998
 20
178.67458529250001
 30
0.0
 42
0.31324356
  0
VERTEX
  5
1F34
  8
WHITE
 10
483.13388334000001
 20
177.25615973250001
 30
0.0
 42
-0.2089163
  0
VERTEX
  5
1F35
  8
WHITE
 10
486.28417642250002
 20
173.0070632275
 30
0.0
 42
-0.2089163
  0
VERTEX
  5
1F36
  8
WHITE
 10
485.30681873750001
 20
167.8086077275
 30
0.0
 42
0.26457967
  0
VERTEX
  5
1F37
  8
WHITE
 10
484.07844495000001
 20
165.849117355
 30
0.0
 42
0.26457967
  0
VERTEX
  5
1F38
  8
WHITE
 10
485.13542148250002
 20
163.79210363499999
 30
0.0
 42
-0.25873717
  0
VERTEX
  5
1F39
  8
WHITE
 10
488.59705822249998
 20
159.53214626499999
 30
0.0
 42
-0.25873717
  0
VERTEX
  5
1F3A
  8
WHITE
 10
486.81646923749997
 20
154.33987597500001
 30
0.0
 42
0.39843947
  0
VERTEX
  5
1F3B
  8
WHITE
 10
485.08810421250001
 20
152.1908042
 30
0.0
 42
0.39843947
  0
VERTEX
  5
1F3C
  8
WHITE
 10
487.14047180999989
 20
150.34864658000001
 30
0.0
 42
-0.16316415
  0
VERTEX
  5
1F3D
  8
WHITE
 10
497.62484837749992
 20
142.4827381625
 30
0.0
  0
VERTEX
  5
1F3E
  8
WHITE
 10
497.81878154250001
 20
142.1963692875
 30
0.0
  0
VERTEX
  5
1F3F
  8
WHITE
 10
498.00788371250002
 20
141.9067875675
 30
0.0
  0
SEQEND
  5
1F40
  8
WHITE
  0
POLYLINE
  5
925
  8
WHITE
 66
     1
 10
0.0
 20
0.0
 30
0.0
 70
     1
  0
VERTEX
  5
1F41
  8
WHITE
 10
417.61942247000002
 20
151.54288393749999
 30
0.0
 42
-0.07711579
  0
VERTEX
  5
1F42
  8
WHITE
 10
414.38108836499993
 20
154.20063164000001
 30
0.0
 42
0.28458813
  0
VERTEX
  5
1F43
  8
WHITE
 10
408.00575186999993
 20
156.05935099249999
 30
0.0
 42
-0.20428915
  0
VERTEX
  5
1F44
  8
WHITE
 10
407.46811376999989
 20
156.13084473000001
 30
0.0
 42
-0.20428915
  0
VERTEX
  5
1F45
  8
WHITE
 10
407.14747143999989
 20
156.56828568750001
 30
0.0
 42
-0.18854597
  0
VERTEX
  5
1F46
  8
WHITE
 10
408.21349651999981
 20
163.96062069999999
 30
0.0
 42
-0.30678258
  0
VERTEX
  5
1F47
  8
WHITE
 10
408.90853727249993
 20
164.30456767749999
 30
0.0
  0
VERTEX
  5
1F48
  8
WHITE
 10
415.49069959500002
 20
163.40510380750001
 30
0.0
 42
0.24131538
  0
VERTEX
  5
1F49
  8
WHITE
 10
418.46593667000002
 20
164.4500836775
 30
0.0
 42
0.24131538
  0
VERTEX
  5
1F4A
  8
WHITE
 10
419.35519499999981
 20
167.475515285
 30
0.0
  0
VERTEX
  5
1F4B
  8
WHITE
 10
418.59183097499988
 20
171.49457887
 30
0.0
 42
-0.32337015
  0
VERTEX
  5
1F4C
  8
WHITE
 10
427.23468820750003
 20
171.49457868499999
 30
0.0
  0
VERTEX
  5
1F4D
  8
WHITE
 10
426.47132427249988
 20
167.475515285
 30
0.0
 42
0.24131538
  0
VERTEX
  5
1F4E
  8
WHITE
 10
427.36058260499988
 20
164.4500836775
 30
0.0
 42
0.24131538
  0
VERTEX
  5
1F4F
  8
WHITE
 10
430.33581967999987
 20
163.40510380750001
 30
0.0
  0
VERTEX
  5
1F50
  8
WHITE
 10
436.91798204749989
 20
164.3045673675
 30
0.0
 42
-0.30678241
  0
VERTEX
  5
1F51
  8
WHITE
 10
437.61302241750002
 20
163.960620995
 30
0.0
 42
-0.18854597
  0
VERTEX
  5
1F52
  8
WHITE
 10
438.6790460874999
 20
156.5682858925
 30
0.0
 42
-0.20428912
  0
VERTEX
  5
1F53
  8
WHITE
 10
438.35840453999992
 20
156.13084616750001
 30
0.0
 42
-0.20428912
  0
VERTEX
  5
1F54
  8
WHITE
 10
437.8207676275
 20
156.05935178499999
 30
0.0
 42
0.28458813
  0
VERTEX
  5
1F55
  8
WHITE
 10
431.44543090749988
 20
154.20063164000001
 30
0.0
 42
-0.16652939
  0
VERTEX
  5
1F56
  8
WHITE
 10
423.72225227749999
 20
149.86902323250001
 30
0.0
 42
-0.22255752
  0
VERTEX
  5
1F57
  8
WHITE
 10
423.58044248499999
 20
149.90627215500001
 30
0.0
 42
-0.22255752
  0
VERTEX
  5
1F58
  8
WHITE
 10
423.51825963750002
 20
150.03905315
 30
0.0
  0
VERTEX
  5
1F59
  8
WHITE
 10
423.51825963750002
 20
156.536982185
 30
0.0
 42
0.4142135500000001
  0
VERTEX
  5
1F5A
  8
WHITE
 10
423.34540249499992
 20
156.70983932749999
 30
0.0
  0
VERTEX
  5
1F5B
  8
WHITE
 10
422.17861676749988
 20
156.70983932749999
 30
0.0
 42
0.41421354
  0
VERTEX
  5
1F5C
  8
WHITE
 10
422.00575963749981
 20
156.536982185
 30
0.0
  0
VERTEX
  5
1F5D
  8
WHITE
 10
422.00575963749981
 20
150.0980259575
 30
0.0
 42
-0.22555687
  0
VERTEX
  5
1F5E
  8
WHITE
 10
421.94205272250002
 20
149.9639893225
 30
0.0
 42
-0.22555687
  0
VERTEX
  5
1F5F
  8
WHITE
 10
421.79789057999989
 20
149.9287513925
 30
0.0
 42
-0.06978888
  0
VERTEX
  5
1F60
  8
WHITE
 10
418.22401783750001
 20
151.20629166000001
 30
0.0
  0
VERTEX
  5
1F61
  8
WHITE
 10
417.9195887849998
 20
151.37075937750001
 30
0.0
  0
VERTEX
  5
1F62
  8
WHITE
 10
417.61942247000002
 20
151.54288393749999
 30
0.0
  0
SEQEND
  5
1F63
  8
WHITE
  0
POLYLINE
  5
949
  8
WHITE
 66
     1
 10
0.0
 20
0.0
 30
0.0
 70
     1
  0
VERTEX
  5
1F64
  8
WHITE
 10
469.93222129999998
 20
232.92856366000001
 30
0.0
 42
0.11548573
  0
VERTEX
  5
1F65
  8
WHITE
 10
455.30583735750002
 20
243.5544969474999
 30
0.0
 42
-0.28550927
  0
VERTEX
  5
1F66
  8
WHITE
 10
452.04707859749999
 20
246.36192864750001
 30
0.0
 42
-0.20899015
  0
VERTEX
  5
1F67
  8
WHITE
 10
447.14238870000003
 20
249.81015544749999
 30
0.0
 42
-0.20899015
  0
VERTEX
  5
1F68
  8
WHITE
 10
446.34181055999989
 20
255.75198449499999
 30
0.0
 42
-0.22758605
  0
VERTEX
  5
1F69
  8
WHITE
 10
443.21043874750001
 20
259.38914449250001
 30
0.0
 42
-0.22758605
  0
VERTEX
  5
1F6A
  8
WHITE
 10
444.08991459499993
 20
264.10729503250002
 30
0.0
 42
0.22498089
  0
VERTEX
  5
1F6B
  8
WHITE
 10
437.7602527775
 20
289.73798256999987
 30
0.0
 42
-0.2310023
  0
VERTEX
  5
1F6C
  8
WHITE
 10
437.72558715999992
 20
289.88559706249993
 30
0.0
 42
-0.2310023
  0
VERTEX
  5
1F6D
  8
WHITE
 10
437.82062686749993
 20
290.00374611249993
 30
0.0
  0
VERTEX
  5
1F6E
  8
WHITE
 10
439.928385945
 20
290.99431697249997
 30
0.0
 42
0.30722233
  0
VERTEX
  5
1F6F
  8
WHITE
 10
440.10811479
 20
291.35541914250001
 30
0.0
 42
0.30722233
  0
VERTEX
  5
1F70
  8
WHITE
 10
439.83899184500001
 20
291.65586872
 30
0.0
  0
VERTEX
  5
1F71
  8
WHITE
 10
438.11653935250001
 20
291.64551098250001
 30
0.0
 42
-0.22830188
  0
VERTEX
  5
1F72
  8
WHITE
 10
437.98098119999992
 20
291.70980953999992
 30
0.0
 42
-0.22830188
  0
VERTEX
  5
1F73
  8
WHITE
 10
437.94676512000001
 20
291.85589027250001
 30
0.0
 42
0.27027334
  0
VERTEX
  5
1F74
  8
WHITE
 10
436.08416610500001
 20
297.68855483750002
 30
0.0
 42
0.27027334
  0
VERTEX
  5
1F75
  8
WHITE
 10
430.09055811249988
 20
298.93991933500001
 30
0.0
 42
-0.21129722
  0
VERTEX
  5
1F76
  8
WHITE
 10
429.95132728999988
 20
298.95309643249999
 30
0.0
 42
-0.21129722
  0
VERTEX
  5
1F77
  8
WHITE
 10
429.8674158349998
 20
299.06497907750008
 30
0.0
 42
0.39626577
  0
VERTEX
  5
1F78
  8
WHITE
 10
424.67339165999999
 20
302.53664697250008
 30
0.0
 42
-0.37650787
  0
VERTEX
  5
1F79
  8
WHITE
 10
424.47958648749989
 20
302.65675763500002
 30
0.0
  0
VERTEX
  5
1F7A
  8
WHITE
 10
423.95675239999991
 20
304.37244170000008
 30
0.0
 42
0.27509845
  0
VERTEX
  5
1F7B
  8
WHITE
 10
423.82594166749988
 20
304.49142426749989
 30
0.0
 42
0.27509845
  0
VERTEX
  5
1F7C
  8
WHITE
 10
423.65898635249999
 20
304.43316360249997
 30
0.0
  0
VERTEX
  5
1F7D
  8
WHITE
 10
422.486675865
 20
303.03605806500002
 30
0.0
 42
-0.23250562
  0
VERTEX
  5
1F7E
  8
WHITE
 10
421.78906244249993
 20
302.72805465250002
 30
0.0
  0
VERTEX
  5
1F7F
  8
WHITE
 10
416.65899089499987
 20
302.93914311499992
 30
0.0
 42
-0.28590439
  0
VERTEX
  5
1F80
  8
WHITE
 10
415.90387090749999
 20
303.45361821
 30
0.0
 42
-0.28590439
  0
VERTEX
  5
1F81
  8
WHITE
 10
416.03244290750001
 20
304.35825053999997
 30
0.0
  0
VERTEX
  5
1F82
  8
WHITE
 10
418.8664258724998
 20
307.73565917249999
 30
0.0
 42
-0.11632483
  0
VERTEX
  5
1F83
  8
WHITE
 10
419.18443289749979
 20
307.97295146999988
 30
0.0
  0
VERTEX
  5
1F84
  8
WHITE
 10
421.53252172249989
 20
308.99196241499988
 30
0.0
  0
VERTEX
  5
1F85
  8
WHITE
 10
422.60360248749993
 20
312.18945309999992
 30
0.0
  0
VERTEX
  5
1F86
  8
WHITE
 10
437.39330889500002
 20
329.81513935750002
 30
0.0
 42
-0.29173357
  0
VERTEX
  5
1F87
  8
WHITE
 10
439.25318444250001
 20
328.57257403249997
 30
0.0
 42
-0.29173357
  0
VERTEX
  5
1F88
  8
WHITE
 10
438.91093477250001
 20
326.36215075000001
 30
0.0
 42
-0.21146783
  0
VERTEX
  5
1F89
  8
WHITE
 10
437.29087674250002
 20
319.11232066749989
 30
0.0
 42
0.30159353
  0
VERTEX
  5
1F8A
  8
WHITE
 10
438.20736442999993
 20
311.33154904999998
 30
0.0
 42
-0.21870845
  0
VERTEX
  5
1F8B
  8
WHITE
 10
438.40153793749988
 20
310.63657453500002
 30
0.0
  0
VERTEX
  5
1F8C
  8
WHITE
 10
438.15965288749987
 20
309.1202440225
 30
0.0
  0
VERTEX
  5
1F8D
  8
WHITE
 10
439.0214295799999
 20
309.53675713500002
 30
0.0
 42
-0.4129998500000001
  0
VERTEX
  5
1F8E
  8
WHITE
 10
440.17412736749992
 20
309.13791714249987
 30
0.0
 42
0.13141332
  0
VERTEX
  5
1F8F
  8
WHITE
 10
450.06404382250003
 20
297.76325397750009
 30
0.0
 42
-0.36397246
  0
VERTEX
  5
1F90
  8
WHITE
 10
453.39731950750001
 20
296.19911530500002
 30
0.0
 42
-0.36397246
  0
VERTEX
  5
1F91
  8
WHITE
 10
452.43573291749999
 20
292.64487730000002
 30
0.0
 42
-0.22864271
  0
VERTEX
  5
1F92
  8
WHITE
 10
454.19123547750002
 20
290.9182123574999
 30
0.0
 42
-0.22864271
  0
VERTEX
  5
1F93
  8
WHITE
 10
453.93209468499998
 20
288.46953861499998
 30
0.0
 42
0.19628165
  0
VERTEX
  5
1F94
  8
WHITE
 10
458.8172557675
 20
262.26378855500002
 30
0.0
 42
-0.22868367
  0
VERTEX
  5
1F95
  8
WHITE
 10
458.5972524899999
 20
259.59145848999998
 30
0.0
 42
0.17638365
  0
VERTEX
  5
1F96
  8
WHITE
 10
471.60484107000002
 20
249.44820190999999
 30
0.0
 42
-0.39237625
  0
VERTEX
  5
1F97
  8
WHITE
 10
485.92304243500001
 20
246.40158110749999
 30
0.0
 42
-0.26477
  0
VERTEX
  5
1F98
  8
WHITE
 10
494.88995092249991
 20
240.2300596
 30
0.0
 42
-0.26477
  0
VERTEX
  5
1F99
  8
WHITE
 10
494.15762030749988
 20
229.36926678250001
 30
0.0
 42
-0.21365731
  0
VERTEX
  5
1F9A
  8
WHITE
 10
494.03828391249999
 20
229.29364466749999
 30
0.0
 42
-0.21365731
  0
VERTEX
  5
1F9B
  8
WHITE
 10
493.90239569499988
 20
229.3323004799999
 30
0.0
  0
VERTEX
  5
1F9C
  8
WHITE
 10
483.53986107249989
 20
238.027499535
 30
0.0
 42
0.41421356
  0
VERTEX
  5
1F9D
  8
WHITE
 10
483.29633397499998
 20
238.0061944775
 30
0.0
  0
VERTEX
  5
1F9E
  8
WHITE
 10
482.54633871499999
 20
237.11238431500001
 30
0.0
 42
0.41421315
  0
VERTEX
  5
1F9F
  8
WHITE
 10
482.56764455749988
 20
236.86885814749999
 30
0.0
  0
VERTEX
  5
1FA0
  8
WHITE
 10
492.93796996499998
 20
228.1671213775
 30
0.0
 42
-0.39715412
  0
VERTEX
  5
1FA1
  8
WHITE
 10
492.96555544500001
 20
227.93153982999999
 30
0.0
 42
0.32689396
  0
VERTEX
  5
1FA2
  8
WHITE
 10
492.87397688999988
 20
215.96063241249999
 30
0.0
 42
-0.26163736
  0
VERTEX
  5
1FA3
  8
WHITE
 10
496.66441324499988
 20
198.1003586425
 30
0.0
 42
-0.22026597
  0
VERTEX
  5
1FA4
  8
WHITE
 10
486.22907639999988
 20
195.04126339250001
 30
0.0
 42
0.06887113
  0
VERTEX
  5
1FA5
  8
WHITE
 10
479.50751682999999
 20
199.47250321499999
 30
0.0
 42
-0.33494029
  0
VERTEX
  5
1FA6
  8
WHITE
 10
479.02759746250001
 20
200.396431245
 30
0.0
 42
0.21901473
  0
VERTEX
  5
1FA7
  8
WHITE
 10
470.37969850500002
 20
232.40142270999999
 30
0.0
  0
VERTEX
  5
1FA8
  8
WHITE
 10
469.93222129999998
 20
232.92856366000001
 30
0.0
  0
SEQEND
  5
1FA9
  8
WHITE
  0
POLYLINE
  5
990
  8
WHITE
 66
     1
 10
0.0
 20
0.0
 30
0.0
 70
     1
  0
VERTEX
  5
1FAA
  8
WHITE
 10
501.22161573250003
 20
76.244497429999996
 30
0.0
 42
0.07254828
  0
VERTEX
  5
1FAB
  8
WHITE
 10
514.14889707249995
 20
68.332892744999995
 30
0.0
 42
-0.41036097
  0
VERTEX
  5
1FAC
  8
WHITE
 10
516.44369011499998
 20
62.712263284999999
 30
0.0
  0
VERTEX
  5
1FAD
  8
WHITE
 10
508.79088348249991
 20
44.157506625000003
 30
0.0
 42
-0.35081915
  0
VERTEX
  5
1FAE
  8
WHITE
 10
502.36965236499992
 20
46.471014722500001
 30
0.0
 42
-0.27508289
  0
VERTEX
  5
1FAF
  8
WHITE
 10
502.36730290749989
 20
46.647818422500002
 30
0.0
  0
VERTEX
  5
1FB0
  8
WHITE
 10
507.32029789500001
 20
55.226658784999991
 30
0.0
 42
0.41421335
  0
VERTEX
  5
1FB1
  8
WHITE
 10
507.25702785750002
 20
55.462785965000002
 30
0.0
  0
VERTEX
  5
1FB2
  8
WHITE
 10
506.24656204500002
 20
56.046178822500003
 30
0.0
 42
0.41421323
  0
VERTEX
  5
1FB3
  8
WHITE
 10
506.01043486499992
 20
55.982908784999999
 30
0.0
  0
VERTEX
  5
1FB4
  8
WHITE
 10
501.067729235
 20
47.421891662500002
 30
0.0
 42
-0.31717325
  0
VERTEX
  5
1FB5
  8
WHITE
 10
500.88685444999999
 20
47.338297917499993
 30
0.0
 42
0.23786922
  0
VERTEX
  5
1FB6
  8
WHITE
 10
485.29840907499988
 20
42.759260329999989
 30
0.0
 42
-0.32849355
  0
VERTEX
  5
1FB7
  8
WHITE
 10
474.91484288750001
 20
45.477155817499998
 30
0.0
 42
-0.38325321
  0
VERTEX
  5
1FB8
  8
WHITE
 10
474.92684252999999
 20
45.707898200000002
 30
0.0
  0
VERTEX
  5
1FB9
  8
WHITE
 10
482.3040448575
 20
53.106743972499999
 30
0.0
 42
0.41421357
  0
VERTEX
  5
1FBA
  8
WHITE
 10
482.303687045
 20
53.351200272500002
 30
0.0
  0
VERTEX
  5
1FBB
  8
WHITE
 10
481.47743681499998
 20
54.175033092500001
 30
0.0
 42
0.41421335
  0
VERTEX
  5
1FBC
  8
WHITE
 10
481.23298021250002
 20
54.174675329999992
 30
0.0
  0
VERTEX
  5
1FBD
  8
WHITE
 10
473.90375758499999
 20
46.823949429999999
 30
0.0
 42
-0.32556533
  0
VERTEX
  5
1FBE
  8
WHITE
 10
473.70274076499999
 20
46.79205108499999
 30
0.0
 42
-0.35658783
  0
VERTEX
  5
1FBF
  8
WHITE
 10
467.11098927249998
 20
61.80927572249999
 30
0.0
  0
VERTEX
  5
1FC0
  8
WHITE
 10
475.24697137499999
 20
75.901211567499999
 30
0.0
 42
-0.41421329
  0
VERTEX
  5
1FC1
  8
WHITE
 10
475.4830985449999
 20
75.964481465000006
 30
0.0
  0
VERTEX
  5
1FC2
  8
WHITE
 10
489.26678859999993
 20
68.006464302500007
 30
0.0
 42
0.4142130500000001
  0
VERTEX
  5
1FC3
  8
WHITE
 10
489.5029156475
 20
68.069734337499995
 30
0.0
  0
VERTEX
  5
1FC4
  8
WHITE
 10
490.08630851499998
 20
69.080200292499995
 30
0.0
 42
0.41421335
  0
VERTEX
  5
1FC5
  8
WHITE
 10
490.02303848000003
 20
69.316327472500006
 30
0.0
  0
VERTEX
  5
1FC6
  8
WHITE
 10
476.23901747749989
 20
77.274535455000006
 30
0.0
 42
-0.41507843
  0
VERTEX
  5
1FC7
  8
WHITE
 10
476.17600331499989
 20
77.511104327499993
 30
0.0
  0
VERTEX
  5
1FC8
  8
WHITE
 10
490.14818640499988
 20
101.547445645
 30
0.0
 42
-0.20318625
  0
VERTEX
  5
1FC9
  8
WHITE
 10
490.68793073500001
 20
101.95210942999999
 30
0.0
 42
-0.20392474
  0
VERTEX
  5
1FCA
  8
WHITE
 10
494.02624775250001
 20
101.4136515525
 30
0.0
 42
-0.20392474
  0
VERTEX
  5
1FCB
  8
WHITE
 10
495.9528644275
 20
98.634722664999998
 30
0.0
 42
-0.18285852
  0
VERTEX
  5
1FCC
  8
WHITE
 10
495.85671046750002
 20
98.030613152499996
 30
0.0
 42
0.3054048
  0
VERTEX
  5
1FCD
  8
WHITE
 10
497.18118734000001
 20
79.98211689
 30
0.0
 42
0.02288576
  0
VERTEX
  5
1FCE
  8
WHITE
 10
500.68564688250001
 20
76.696601625
 30
0.0
  0
VERTEX
  5
1FCF
  8
WHITE
 10
501.22161573250003
 20
76.244497429999996
 30
0.0
  0
SEQEND
  5
1FD0
  8
WHITE
  0
POLYLINE
  5
9B8
  8
WHITE
 66
     1
 10
0.0
 20
0.0
 30
0.0
 70
     1
  0
VERTEX
  5
1FD1
  8
WHITE
 10
196.19232257499999
 20
299.10955417500008
 30
0.0
 42
0.08713648
  0
VERTEX
  5
1FD2
  8
WHITE
 10
185.53465040500001
 20
293.42415859499999
 30
0.0
 42
0.2161957000000001
  0
VERTEX
  5
1FD3
  8
WHITE
 10
192.1529131225
 20
293.84973580249988
 30
0.0
 42
0.2161957000000001
  0
VERTEX
  5
1FD4
  8
WHITE
 10
196.19232257499999
 20
299.10955417500008
 30
0.0
  0
SEQEND
  5
1FD5
  8
WHITE
  0
POLYLINE
  5
9BE
  8
WHITE
 66
     1
 10
0.0
 20
0.0
 30
0.0
 70
     1
  0
VERTEX
  5
1FD6
  8
WHITE
 10
338.02943869249992
 20
206.81541096999999
 30
0.0
 42
0.41421356
  0
VERTEX
  5
1FD7
  8
WHITE
 10
338.30623176500001
 20
206.33004762499999
 30
0.0
 42
0.41421356
  0
VERTEX
  5
1FD8
  8
WHITE
 10
338.791594465
 20
206.6068395225
 30
0.0
 42
-0.10493841
  0
VERTEX
  5
1FD9
  8
WHITE
 10
340.15350266500002
 20
208.79342687249999
 30
0.0
 42
-0.21758235
  0
VERTEX
  5
1FDA
  8
WHITE
 10
340.43201842000002
 20
211.57141853249991
 30
0.0
 42
0.41421356
  0
VERTEX
  5
1FDB
  8
WHITE
 10
339.65086405
 20
212.6435128075
 30
0.0
 42
0.41421356
  0
VERTEX
  5
1FDC
  8
WHITE
 10
338.57876964249988
 20
211.86235759499999
 30
0.0
 42
-0.16928727
  0
VERTEX
  5
1FDD
  8
WHITE
 10
338.39332992499988
 20
208.9474213524999
 30
0.0
 42
-0.1153285
  0
VERTEX
  5
1FDE
  8
WHITE
 10
338.02943869249992
 20
206.81541096999999
 30
0.0
  0
SEQEND
  5
1FDF
  8
WHITE
  0
POLYLINE
  5
9C9
  8
WHITE
 66
     1
 10
0.0
 20
0.0
 30
0.0
 70
     1
  0
VERTEX
  5
1FE0
  8
WHITE
 10
146.1754048025
 20
241.9196644349999
 30
0.0
 42
0.41421356
  0
VERTEX
  5
1FE1
  8
WHITE
 10
146.07545400999999
 20
241.3699350924999
 30
0.0
 42
0.41421356
  0
VERTEX
  5
1FE2
  8
WHITE
 10
146.62518299249999
 20
241.26998442249999
 30
0.0
 42
-0.10493841
  0
VERTEX
  5
1FE3
  8
WHITE
 10
149.07397606000001
 20
242.06958982499989
 30
0.0
 42
-0.21758235
  0
VERTEX
  5
1FE4
  8
WHITE
 10
151.07298955499999
 20
244.01862908250001
 30
0.0
 42
0.41421356
  0
VERTEX
  5
1FE5
  8
WHITE
 10
151.16371963500001
 20
245.3420166649999
 30
0.0
 42
0.41421356
  0
VERTEX
  5
1FE6
  8
WHITE
 10
149.84033142000001
 20
245.4327469225
 30
0.0
 42
-0.16928731
  0
VERTEX
  5
1FE7
  8
WHITE
 10
147.82459151500001
 20
243.318974365
 30
0.0
 42
-0.1153285
  0
VERTEX
  5
1FE8
  8
WHITE
 10
146.1754048025
 20
241.9196644349999
 30
0.0
  0
SEQEND
  5
1FE9
  8
WHITE
  0
POLYLINE
  5
9D4
  8
WHITE
 66
     1
 10
0.0
 20
0.0
 30
0.0
 70
     1
  0
VERTEX
  5
1FEA
  8
WHITE
 10
106.4972395625
 20
269.24688823999998
 30
0.0
 42
0.1582342
  0
VERTEX
  5
1FEB
  8
WHITE
 10
116.2914091025
 20
262.96387614999998
 30
0.0
 42
-0.41421356
  0
VERTEX
  5
1FEC
  8
WHITE
 10
116.622490085
 20
261.93729872749992
 30
0.0
 42
-0.41421356
  0
VERTEX
  5
1FED
  8
WHITE
 10
115.595912445
 20
261.60621731750001
 30
0.0
 42
-0.14186104
  0
VERTEX
  5
1FEE
  8
WHITE
 10
106.4972395625
 20
269.24688823999998
 30
0.0
  0
SEQEND
  5
1FEF
  8
WHITE
  0
POLYLINE
  5
9DB
  8
WHITE
 66
     1
 10
0.0
 20
0.0
 30
0.0
 70
     1
  0
VERTEX
  5
1FF0
  8
WHITE
 10
447.64815132500001
 20
268.40275255499989
 30
0.0
 42
0.207153
  0
VERTEX
  5
1FF1
  8
WHITE
 10
447.76232342749989
 20
268.08238858750002
 30
0.0
 42
0.207153
  0
VERTEX
  5
1FF2
  8
WHITE
 10
448.07404759749988
 20
267.94638738499998
 30
0.0
 42
0.207153
  0
VERTEX
  5
1FF3
  8
WHITE
 10
448.38654568750002
 20
268.08060075750001
 30
0.0
 42
0.207153
  0
VERTEX
  5
1FF4
  8
WHITE
 10
448.50255042249989
 20
268.40030543500001
 30
0.0
 42
0.29201129
  0
VERTEX
  5
1FF5
  8
WHITE
 10
445.82209942749989
 20
277.79425729000002
 30
0.0
 42
-0.10539773
  0
VERTEX
  5
1FF6
  8
WHITE
 10
447.64815132500001
 20
268.40275255499989
 30
0.0
  0
SEQEND
  5
1FF7
  8
WHITE
  0
POLYLINE
  5
9E4
  8
WHITE
 66
     1
 10
0.0
 20
0.0
 30
0.0
 70
     1
  0
VERTEX
  5
1FF8
  8
WHITE
 10
347.72828068249993
 20
220.98591067500001
 30
0.0
 42
0.24412196
  0
VERTEX
  5
1FF9
  8
WHITE
 10
349.01429686
 20
222.16611238499999
 30
0.0
 42
0.24412196
  0
VERTEX
  5
1FFA
  8
WHITE
 10
348.78892627250002
 20
223.89698531749991
 30
0.0
 42
-0.23359689
  0
VERTEX
  5
1FFB
  8
WHITE
 10
349.38402194499997
 20
225.8634109875
 30
0.0
 42
-0.23359689
  0
VERTEX
  5
1FFC
  8
WHITE
 10
351.30754237000002
 20
226.58523923249999
 30
0.0
 42
-0.21151363
  0
VERTEX
  5
1FFD
  8
WHITE
 10
351.9160404525
 20
226.23938251999999
 30
0.0
 42
-0.21151363
  0
VERTEX
  5
1FFE
  8
WHITE
 10
352.06891150000001
 20
225.55636185750001
 30
0.0
 42
0.07798306
  0
VERTEX
  5
1FFF
  8
WHITE
 10
351.82931317750001
 20
219.72216166749999
 30
0.0
 42
-0.2183865
  0
VERTEX
  5
2000
  8
WHITE
 10
351.49399447249999
 20
218.69454967749991
 30
0.0
 42
-0.2183865
  0
VERTEX
  5
2001
  8
WHITE
 10
350.49643375749997
 20
218.2782589574999
 30
0.0
  0
VERTEX
  5
2002
  8
WHITE
 10
348.02038913000001
 20
218.36417079500001
 30
0.0
 42
-0.4071464500000002
  0
VERTEX
  5
2003
  8
WHITE
 10
346.7689881375
 20
219.67342525750001
 30
0.0
  0
VERTEX
  5
2004
  8
WHITE
 10
346.76976997249989
 20
219.7478824225
 30
0.0
 42
-0.33601828
  0
VERTEX
  5
2005
  8
WHITE
 10
347.72828068249993
 20
220.98591067500001
 30
0.0
  0
SEQEND
  5
2006
  8
WHITE
  0
POLYLINE
  5
9F4
  8
WHITE
 66
     1
 10
0.0
 20
0.0
 30
0.0
 70
     1
  0
VERTEX
  5
2007
  8
WHITE
 10
162.71377017500001
 20
246.5406018599999
 30
0.0
 42
0.3360183
  0
VERTEX
  5
2008
  8
WHITE
 10
161.18371893
 20
246.2083356599999
 30
0.0
  0
VERTEX
  5
2009
  8
WHITE
 10
161.13525995000001
 20
246.1518008075
 30
0.0
 42
0.40714636
  0
VERTEX
  5
200A
  8
WHITE
 10
161.2523168175
 20
244.3444687199999
 30
0.0
  0
VERTEX
  5
200B
  8
WHITE
 10
163.09385410749999
 20
242.6870850775
 30
0.0
 42
0.21838635
  0
VERTEX
  5
200C
  8
WHITE
 10
164.125616245
 20
242.36476253250001
 30
0.0
 42
0.21838635
  0
VERTEX
  5
200D
  8
WHITE
 10
165.04302093749999
 20
242.93642055999999
 30
0.0
 42
-0.07798306
  0
VERTEX
  5
200E
  8
WHITE
 10
168.97671575000001
 20
247.25166604500001
 30
0.0
 42
0.21151365
  0
VERTEX
  5
200F
  8
WHITE
 10
169.298647915
 20
247.87315419250001
 30
0.0
 42
0.21151365
  0
VERTEX
  5
2010
  8
WHITE
 10
169.05482394750001
 20
248.52923164250001
 30
0.0
 42
0.23359689
  0
VERTEX
  5
2011
  8
WHITE
 10
167.1173388
 20
249.21269347249989
 30
0.0
 42
0.23359689
  0
VERTEX
  5
2012
  8
WHITE
 10
165.39747500999999
 20
248.08884414249999
 30
0.0
 42
-0.24412195
  0
VERTEX
  5
2013
  8
WHITE
 10
164.45753471
 20
246.61805333000001
 30
0.0
 42
-0.24412195
  0
VERTEX
  5
2014
  8
WHITE
 10
162.71377017500001
 20
246.5406018599999
 30
0.0
  0
SEQEND
  5
2015
  8
WHITE
  0
POLYLINE
  5
A04
  8
WHITE
 66
     1
 10
0.0
 20
0.0
 30
0.0
 70
     1
  0
VERTEX
  5
2016
  8
WHITE
 10
291.67451205999993
 20
254.27750216250001
 30
0.0
 42
0.3255832
  0
VERTEX
  5
2017
  8
WHITE
 10
303.89871586750002
 20
247.70832834250001
 30
0.0
 42
0.3255832
  0
VERTEX
  5
2018
  8
WHITE
 10
316.12291935000002
 20
254.27750219000001
 30
0.0
 42
-0.41421356
  0
VERTEX
  5
2019
  8
WHITE
 10
320.22510740000001
 20
257.14561645999999
 30
0.0
 42
-0.41421356
  0
VERTEX
  5
201A
  8
WHITE
 10
323.09322201750001
 20
253.04342855499999
 30
0.0
 42
-0.33991725
  0
VERTEX
  5
201B
  8
WHITE
 10
303.89871576749988
 20
240.75336949000001
 30
0.0
 42
-0.33991725
  0
VERTEX
  5
201C
  8
WHITE
 10
284.70420989249988
 20
253.04342858749999
 30
0.0
 42
-0.41421356
  0
VERTEX
  5
201D
  8
WHITE
 10
287.57232418749987
 20
257.14561645999999
 30
0.0
 42
-0.41421356
  0
VERTEX
  5
201E
  8
WHITE
 10
291.67451205999993
 20
254.27750216250001
 30
0.0
  0
SEQEND
  5
201F
  8
WHITE
  0
POLYLINE
  5
A0F
  8
WHITE
 66
     1
 10
0.0
 20
0.0
 30
0.0
 70
     1
  0
VERTEX
  5
2020
  8
WHITE
 10
375.02868681249993
 20
229.88913163999999
 30
0.0
 42
-0.28733365
  0
VERTEX
  5
2021
  8
WHITE
 10
372.47453692750003
 20
234.468941605
 30
0.0
 42
-0.28733365
  0
VERTEX
  5
2022
  8
WHITE
 10
375.480524995
 20
238.76572831499999
 30
0.0
  0
VERTEX
  5
2023
  8
WHITE
 10
384.85966281499992
 20
238.037023965
 30
0.0
 42
0.22382311
  0
VERTEX
  5
2024
  8
WHITE
 10
387.61524309250001
 20
239.08320686249991
 30
0.0
 42
0.22382311
  0
VERTEX
  5
2025
  8
WHITE
 10
388.56246518
 20
241.87435193499991
 30
0.0
  0
VERTEX
  5
2026
  8
WHITE
 10
387.95886612499987
 20
247.1828958625
 30
0.0
 42
-0.24563289
  0
VERTEX
  5
2027
  8
WHITE
 10
396.60172314750002
 20
247.1828958625
 30
0.0
  0
VERTEX
  5
2028
  8
WHITE
 10
395.99812409250001
 20
241.87435193499991
 30
0.0
 42
0.22382311
  0
VERTEX
  5
2029
  8
WHITE
 10
396.94534618
 20
239.08320686249991
 30
0.0
 42
0.22382311
  0
VERTEX
  5
202A
  8
WHITE
 10
399.70092645749992
 20
238.037023965
 30
0.0
  0
VERTEX
  5
202B
  8
WHITE
 10
409.08006416000001
 20
238.76572804
 30
0.0
 42
-0.28733365
  0
VERTEX
  5
202C
  8
WHITE
 10
412.08605234499993
 20
234.468941605
 30
0.0
 42
-0.28733365
  0
VERTEX
  5
202D
  8
WHITE
 10
409.53190246000003
 20
229.88913163999999
 30
0.0
 42
0.30939137
  0
VERTEX
  5
202E
  8
WHITE
 10
399.551962565
 20
225.46709292
 30
0.0
 42
-0.27316815
  0
VERTEX
  5
202F
  8
WHITE
 10
393.18779463750002
 20
222.51704366499999
 30
0.0
  0
VERTEX
  5
2030
  8
WHITE
 10
393.18779463750002
 20
229.89718197249999
 30
0.0
  0
VERTEX
  5
2031
  8
WHITE
 10
391.37279463750002
 20
229.89718197249999
 30
0.0
  0
VERTEX
  5
2032
  8
WHITE
 10
391.37279493
 20
222.51704333000001
 30
0.0
 42
-0.27316813
  0
VERTEX
  5
2033
  8
WHITE
 10
385.00862661999992
 20
225.46709221250001
 30
0.0
 42
0.30939139
  0
VERTEX
  5
2034
  8
WHITE
 10
375.02868681249993
 20
229.88913163999999
 30
0.0
  0
SEQEND
  5
2035
  8
WHITE
  0
POLYLINE
  5
A26
  8
DEFAULT_LAYER
 66
     1
 10
0.0
 20
0.0
 30
0.0
 70
     1
  0
VERTEX
  5
2036
  8
DEFAULT_LAYER
 10
522.87191585499988
 20
160.8735081225
 30
0.0
 42
-0.13194508
  0
VERTEX
  5
2037
  8
DEFAULT_LAYER
 10
521.88431520749998
 20
160.78499690000001
 30
0.0
 42
-0.20785132
  0
VERTEX
  5
2038
  8
DEFAULT_LAYER
 10
520.61246378249984
 20
161.62347819749999
 30
0.0
 42
-0.20785132
  0
VERTEX
  5
2039
  8
DEFAULT_LAYER
 10
520.35743168249985
 20
163.1253488875
 30
0.0
 42
-0.20785132
  0
VERTEX
  5
203A
  8
DEFAULT_LAYER
 10
521.28120702249987
 20
164.33666897750001
 30
0.0
  0
VERTEX
  5
203B
  8
DEFAULT_LAYER
 10
527.36224706749988
 20
166.51468688
 30
0.0
 42
0.41421341
  0
VERTEX
  5
203C
  8
DEFAULT_LAYER
 10
527.46669504500005
 20
166.73570659250001
 30
0.0
  0
VERTEX
  5
203D
  8
DEFAULT_LAYER
 10
527.0732661374999
 20
167.83416187750001
 30
0.0
 42
0.4142134900000001
  0
VERTEX
  5
203E
  8
DEFAULT_LAYER
 10
526.85224667249986
 20
167.93860994249999
 30
0.0
  0
VERTEX
  5
203F
  8
DEFAULT_LAYER
 10
521.40773056499995
 20
165.9885722425
 30
0.0
 42
-0.29876814
  0
VERTEX
  5
2040
  8
DEFAULT_LAYER
 10
518.26275105000002
 20
167.55135744250001
 30
0.0
 42
-0.29876814
  0
VERTEX
  5
2041
  8
DEFAULT_LAYER
 10
518.44418016749989
 20
171.05853236499999
 30
0.0
 42
-0.27016774
  0
VERTEX
  5
2042
  8
DEFAULT_LAYER
 10
516.37105720750003
 20
172.59102596
 30
0.0
 42
-0.27016774
  0
VERTEX
  5
2043
  8
DEFAULT_LAYER
 10
516.68286130750005
 20
175.15015722250001
 30
0.0
  0
VERTEX
  5
2044
  8
DEFAULT_LAYER
 10
523.4073580475
 20
177.58578858999999
 30
0.0
 42
0.41421356
  0
VERTEX
  5
2045
  8
DEFAULT_LAYER
 10
523.51101586749985
 20
177.80718019
 30
0.0
  0
VERTEX
  5
2046
  8
DEFAULT_LAYER
 10
523.11366482000005
 20
178.904221535
 30
0.0
 42
0.41421351
  0
VERTEX
  5
2047
  8
DEFAULT_LAYER
 10
522.8922727575
 20
179.00787922250001
 30
0.0
  0
VERTEX
  5
2048
  8
DEFAULT_LAYER
 10
517.272296525
 20
176.97230869000001
 30
0.0
 42
-0.28744556
  0
VERTEX
  5
2049
  8
DEFAULT_LAYER
 10
514.76734202499995
 20
178.5269437874999
 30
0.0
 42
-0.28744556
  0
VERTEX
  5
204A
  8
DEFAULT_LAYER
 10
515.07412698250005
 20
181.4591053975
 30
0.0
 42
-0.35618744
  0
VERTEX
  5
204B
  8
DEFAULT_LAYER
 10
512.12292062250003
 20
182.9224827875
 30
0.0
 42
-0.35618744
  0
VERTEX
  5
204C
  8
DEFAULT_LAYER
 10
512.96415620749997
 20
186.10735543499999
 30
0.0
  0
VERTEX
  5
204D
  8
DEFAULT_LAYER
 10
520.30120080499989
 20
188.76485328749999
 30
0.0
 42
0.41421347
  0
VERTEX
  5
204E
  8
DEFAULT_LAYER
 10
520.40485857500005
 20
188.98624486750001
 30
0.0
  0
VERTEX
  5
204F
  8
DEFAULT_LAYER
 10
520.00750753499995
 20
190.08328619
 30
0.0
 42
0.41421334
  0
VERTEX
  5
2050
  8
DEFAULT_LAYER
 10
519.78611605250001
 20
190.18694404249999
 30
0.0
  0
VERTEX
  5
2051
  8
DEFAULT_LAYER
 10
512.82156701250005
 20
187.6643658875
 30
0.0
 42
-0.29787119
  0
VERTEX
  5
2052
  8
DEFAULT_LAYER
 10
510.58488396749988
 20
189.89442589000001
 30
0.0
 42
-0.29787119
  0
VERTEX
  5
2053
  8
DEFAULT_LAYER
 10
511.73036000249999
 20
192.83786089
 30
0.0
 42
-0.3118654000000001
  0
VERTEX
  5
2054
  8
DEFAULT_LAYER
 10
509.18937579499999
 20
194.667397515
 30
0.0
 42
-0.3118654000000001
  0
VERTEX
  5
2055
  8
DEFAULT_LAYER
 10
510.00176420000003
 20
197.691274015
 30
0.0
  0
VERTEX
  5
2056
  8
DEFAULT_LAYER
 10
517.18997403749995
 20
200.26584027749999
 30
0.0
  0
VERTEX
  5
2057
  8
DEFAULT_LAYER
 10
516.67997459499986
 20
201.6897630924999
 30
0.0
  0
VERTEX
  5
2058
  8
DEFAULT_LAYER
 10
509.90817818499988
 20
199.2643418275
 30
0.0
 42
-0.31266855
  0
VERTEX
  5
2059
  8
DEFAULT_LAYER
 10
507.62736483750001
 20
201.45533255000001
 30
0.0
 42
-0.31266855
  0
VERTEX
  5
205A
  8
DEFAULT_LAYER
 10
508.87837795499991
 20
204.36007307
 30
0.0
 42
-0.37836481
  0
VERTEX
  5
205B
  8
DEFAULT_LAYER
 10
505.98524339750003
 20
206.34122742
 30
0.0
 42
-0.37836481
  0
VERTEX
  5
205C
  8
DEFAULT_LAYER
 10
507.59358417250002
 20
209.4570642349999
 30
0.0
  0
VERTEX
  5
205D
  8
DEFAULT_LAYER
 10
514.16900765749995
 20
211.20131035
 30
0.0
 42
0.41421336
  0
VERTEX
  5
205E
  8
DEFAULT_LAYER
 10
514.29176561500003
 20
211.41270944999999
 30
0.0
  0
VERTEX
  5
205F
  8
DEFAULT_LAYER
 10
513.99260175749998
 20
212.540490815
 30
0.0
 42
0.41421334
  0
VERTEX
  5
2060
  8
DEFAULT_LAYER
 10
513.78120265749999
 20
212.6632487725
 30
0.0
  0
VERTEX
  5
2061
  8
DEFAULT_LAYER
 10
507.20577917000003
 20
210.9190030325
 30
0.0
 42
-0.37409757
  0
VERTEX
  5
2062
  8
DEFAULT_LAYER
 10
504.31710709499993
 20
213.321477195
 30
0.0
 42
-0.37409757
  0
VERTEX
  5
2063
  8
DEFAULT_LAYER
 10
506.29656160000002
 20
216.51491913250001
 30
0.0
 42
-0.30188061
  0
VERTEX
  5
2064
  8
DEFAULT_LAYER
 10
504.11267077500003
 20
218.99859427000001
 30
0.0
 42
-0.30188061
  0
VERTEX
  5
2065
  8
DEFAULT_LAYER
 10
505.5555820374999
 20
221.97450213499999
 30
0.0
  0
VERTEX
  5
2066
  8
DEFAULT_LAYER
 10
512.42017132249998
 20
222.27897011499991
 30
0.0
 42
0.4142134900000001
  0
VERTEX
  5
2067
  8
DEFAULT_LAYER
 10
512.58519938999984
 20
222.45931713249999
 30
0.0
  0
VERTEX
  5
2068
  8
DEFAULT_LAYER
 10
512.5334995474999
 20
223.62495684500001
 30
0.0
 42
0.4142134000000002
  0
VERTEX
  5
2069
  8
DEFAULT_LAYER
 10
512.35315288000004
 20
223.78998440749999
 30
0.0
  0
VERTEX
  5
206A
  8
DEFAULT_LAYER
 10
505.88813761
 20
223.50323837249999
 30
0.0
 42
-0.23495478
  0
VERTEX
  5
206B
  8
DEFAULT_LAYER
 10
504.18998395
 20
226.1067384525
 30
0.0
 42
-0.23495478
  0
VERTEX
  5
206C
  8
DEFAULT_LAYER
 10
505.24156103000001
 20
229.03182369999999
 30
0.0
 42
-0.32048065
  0
VERTEX
  5
206D
  8
DEFAULT_LAYER
 10
504.46665812499992
 20
233.2861912775
 30
0.0
 42
-0.27698359
  0
VERTEX
  5
206E
  8
DEFAULT_LAYER
 10
504.61443020749988
 20
233.38518933500001
 30
0.0
  0
VERTEX
  5
206F
  8
DEFAULT_LAYER
 10
512.37270820749995
 20
233.7722484574999
 30
0.0
 42
0.41421356
  0
VERTEX
  5
2070
  8
DEFAULT_LAYER
 10
512.53673753750002
 20
233.95350472749999
 30
0.0
  0
VERTEX
  5
2071
  8
DEFAULT_LAYER
 10
512.47859925249998
 20
235.11884066249991
 30
0.0
 42
0.41421351
  0
VERTEX
  5
2072
  8
DEFAULT_LAYER
 10
512.29734376249985
 20
235.28286998999999
 30
0.0
  0
VERTEX
  5
2073
  8
DEFAULT_LAYER
 10
504.98485658250002
 20
234.91805117999999
 30
0.0
 42
-0.21841509
  0
VERTEX
  5
2074
  8
DEFAULT_LAYER
 10
503.32619640500002
 20
237.56628627000001
 30
0.0
 42
-0.21841509
  0
VERTEX
  5
2075
  8
DEFAULT_LAYER
 10
504.25142452
 20
240.5509564624999
 30
0.0
 42
-0.25831569
  0
VERTEX
  5
2076
  8
DEFAULT_LAYER
 10
503.88181280999987
 20
244.07576929749999
 30
0.0
 42
-0.25831569
  0
VERTEX
  5
2077
  8
DEFAULT_LAYER
 10
506.67268860749999
 20
246.260244465
 30
0.0
  0
VERTEX
  5
2078
  8
DEFAULT_LAYER
 10
512.32597023000005
 20
246.2313470725
 30
0.0
 42
0.41421357
  0
VERTEX
  5
2079
  8
DEFAULT_LAYER
 10
512.49970894499995
 20
246.40331832250001
 30
0.0
  0
VERTEX
  5
207A
  8
DEFAULT_LAYER
 10
512.50567284999988
 20
247.5700890725
 30
0.0
 42
0.4142133000000002
  0
VERTEX
  5
207B
  8
DEFAULT_LAYER
 10
512.33370168750002
 20
247.7438275275
 30
0.0
  0
VERTEX
  5
207C
  8
DEFAULT_LAYER
 10
505.71195911749987
 20
247.77767582749999
 30
0.0
 42
-0.27321854
  0
VERTEX
  5
207D
  8
DEFAULT_LAYER
 10
504.2358343075
 20
250.0778595724999
 30
0.0
 42
-0.27321854
  0
VERTEX
  5
207E
  8
DEFAULT_LAYER
 10
505.53723762499999
 20
252.48121915499999
 30
0.0
 42
-0.22579075
  0
VERTEX
  5
207F
  8
DEFAULT_LAYER
 10
506.04497172250001
 20
257.29310225
 30
0.0
  0
VERTEX
  5
2080
  8
DEFAULT_LAYER
 10
512.68664820499987
 20
256.74138588250003
 30
0.0
 42
0.4142134300000002
  0
VERTEX
  5
2081
  8
DEFAULT_LAYER
 10
512.87322169000004
 20
256.89933996249999
 30
0.0
  0
VERTEX
  5
2082
  8
DEFAULT_LAYER
 10
512.96981253249987
 20
258.06212057750002
 30
0.0
 42
0.41421341
  0
VERTEX
  5
2083
  8
DEFAULT_LAYER
 10
512.81185854750004
 20
258.24869413250002
 30
0.0
  0
VERTEX
  5
2084
  8
DEFAULT_LAYER
 10
506.3192978125
 20
258.78802376999988
 30
0.0
 42
-0.27538529
  0
VERTEX
  5
2085
  8
DEFAULT_LAYER
 10
507.25183144499988
 20
265.60898193000003
 30
0.0
 42
-0.25360437
  0
VERTEX
  5
2086
  8
DEFAULT_LAYER
 10
508.10372394749999
 20
269.79650716999998
 30
0.0
 42
-0.28726079
  0
VERTEX
  5
2087
  8
DEFAULT_LAYER
 10
508.27823847249999
 20
269.85316153500003
 30
0.0
  0
VERTEX
  5
2088
  8
DEFAULT_LAYER
 10
514.46386391500005
 20
268.30297954249988
 30
0.0
 42
0.41421332
  0
VERTEX
  5
2089
  8
DEFAULT_LAYER
 10
514.67355653749985
 20
268.42863049499999
 30
0.0
  0
VERTEX
  5
208A
  8
DEFAULT_LAYER
 10
514.95719357749988
 20
269.56041639
 30
0.0
 42
0.41421331
  0
VERTEX
  5
208B
  8
DEFAULT_LAYER
 10
514.83154191250003
 20
269.77010852500001
 30
0.0
  0
VERTEX
  5
208C
  8
DEFAULT_LAYER
 10
509.21996609249987
 20
271.17642796000001
 30
0.0
 42
-0.26729494
  0
VERTEX
  5
208D
  8
DEFAULT_LAYER
 10
507.62123778
 20
274.03067565999999
 30
0.0
 42
-0.26729494
  0
VERTEX
  5
208E
  8
DEFAULT_LAYER
 10
509.28685324999992
 20
276.84641485750001
 30
0.0
 42
-0.21084616
  0
VERTEX
  5
208F
  8
DEFAULT_LAYER
 10
509.96303636250002
 20
279.40059006249999
 30
0.0
 42
-0.21084616
  0
VERTEX
  5
2090
  8
DEFAULT_LAYER
 10
512.30566210749998
 20
280.62253058499988
 30
0.0
  0
VERTEX
  5
2091
  8
DEFAULT_LAYER
 10
531.18340594999995
 20
271.81969376749998
 30
0.0
 42
-0.41421354
  0
VERTEX
  5
2092
  8
DEFAULT_LAYER
 10
531.26701550749988
 20
271.58997997749992
 30
0.0
  0
VERTEX
  5
2093
  8
DEFAULT_LAYER
 10
525.93417645750003
 20
260.15367016499999
 30
0.0
 42
0.4142133700000001
  0
VERTEX
  5
2094
  8
DEFAULT_LAYER
 10
526.01778573000001
 20
259.92395512249999
 30
0.0
  0
VERTEX
  5
2095
  8
DEFAULT_LAYER
 10
527.07525256500003
 20
259.430850255
 30
0.0
 42
0.41421357
  0
VERTEX
  5
2096
  8
DEFAULT_LAYER
 10
527.3049669275
 20
259.514459445
 30
0.0
  0
VERTEX
  5
2097
  8
DEFAULT_LAYER
 10
532.63780587500003
 20
270.95076951750002
 30
0.0
 42
-0.41421356
  0
VERTEX
  5
2098
  8
DEFAULT_LAYER
 10
532.86752053750001
 20
271.03437822749999
 30
0.0
  0
VERTEX
  5
2099
  8
DEFAULT_LAYER
 10
551.47110588500004
 20
262.35938458750002
 30
0.0
 42
-0.17253484
  0
VERTEX
  5
209A
  8
DEFAULT_LAYER
 10
539.22446354750002
 20
248.867094955
 30
0.0
 42
-0.28947149
  0
VERTEX
  5
209B
  8
DEFAULT_LAYER
 10
539.38595416500004
 20
246.5785027199999
 30
0.0
 42
-0.28947149
  0
VERTEX
  5
209C
  8
DEFAULT_LAYER
 10
537.388312165
 20
245.45015897249991
 30
0.0
  0
VERTEX
  5
209D
  8
DEFAULT_LAYER
 10
530.23964512999987
 20
247.042727265
 30
0.0
  0
VERTEX
  5
209E
  8
DEFAULT_LAYER
 10
535.12203731249986
 20
243.9747070825
 30
0.0
 42
-0.21041585
  0
VERTEX
  5
209F
  8
DEFAULT_LAYER
 10
535.56229394750005
 20
242.08406689249989
 30
0.0
 42
-0.21041585
  0
VERTEX
  5
20A0
  8
DEFAULT_LAYER
 10
534.46495130000005
 20
240.4827598
 30
0.0
  0
VERTEX
  5
20A1
  8
DEFAULT_LAYER
 10
530.86320393749986
 20
239.78831109500001
 30
0.0
 42
0.33041263
  0
VERTEX
  5
20A2
  8
DEFAULT_LAYER
 10
529.26607924500001
 20
238.6120331949999
 30
0.0
 42
0.33041263
  0
VERTEX
  5
20A3
  8
DEFAULT_LAYER
 10
529.92847202250005
 20
236.7423611275
 30
0.0
  0
VERTEX
  5
20A4
  8
DEFAULT_LAYER
 10
534.42377644500004
 20
236.2288129099999
 30
0.0
 42
-0.36646759
  0
VERTEX
  5
20A5
  8
DEFAULT_LAYER
 10
536.87469250250001
 20
234.3647039025
 30
0.0
 42
-0.36646759
  0
VERTEX
  5
20A6
  8
DEFAULT_LAYER
 10
535.44042913750002
 20
231.6398587125
 30
0.0
 42
-0.2485496
  0
VERTEX
  5
20A7
  8
DEFAULT_LAYER
 10
527.09223301999998
 20
230.6710920525
 30
0.0
 42
0.1213568
  0
VERTEX
  5
20A8
  8
DEFAULT_LAYER
 10
535.03080405749995
 20
227.127540095
 30
0.0
 42
-0.38816145
  0
VERTEX
  5
20A9
  8
DEFAULT_LAYER
 10
537.75607081249996
 20
224.41872046500001
 30
0.0
 42
-0.38816145
  0
VERTEX
  5
20AA
  8
DEFAULT_LAYER
 10
535.30244571000003
 20
221.46160897499999
 30
0.0
 42
-0.15338943
  0
VERTEX
  5
20AB
  8
DEFAULT_LAYER
 10
525.37524606500006
 20
223.08370934000001
 30
0.0
 42
0.09916854
  0
VERTEX
  5
20AC
  8
DEFAULT_LAYER
 10
536.67101557249998
 20
215.2841699825
 30
0.0
 42
-0.27917739
  0
VERTEX
  5
20AD
  8
DEFAULT_LAYER
 10
537.73919297249995
 20
212.42118093249999
 30
0.0
 42
-0.27917739
  0
VERTEX
  5
20AE
  8
DEFAULT_LAYER
 10
535.69711716250004
 20
210.14793765749991
 30
0.0
 42
-0.19590511
  0
VERTEX
  5
20AF
  8
DEFAULT_LAYER
 10
526.24978298999997
 20
210.7718313275
 30
0.0
 42
0.24253244
  0
VERTEX
  5
20B0
  8
DEFAULT_LAYER
 10
536.18755726999996
 20
205.86766527250001
 30
0.0
 42
-0.31094773
  0
VERTEX
  5
20B1
  8
DEFAULT_LAYER
 10
538.22958263750002
 20
203.347986265
 30
0.0
 42
-0.31094773
  0
VERTEX
  5
20B2
  8
DEFAULT_LAYER
 10
536.6045543974999
 20
200.54122071
 30
0.0
 42
-0.17488267
  0
VERTEX
  5
20B3
  8
DEFAULT_LAYER
 10
529.90882903750003
 20
202.52573073499991
 30
0.0
 42
0.21518955
  0
VERTEX
  5
20B4
  8
DEFAULT_LAYER
 10
539.41649749750002
 20
196.24792134250001
 30
0.0
 42
-0.25565323
  0
VERTEX
  5
20B5
  8
DEFAULT_LAYER
 10
541.96038604249998
 20
193.84921306999999
 30
0.0
 42
-0.25565323
  0
VERTEX
  5
20B6
  8
DEFAULT_LAYER
 10
541.31239349999987
 20
190.41333202999999
 30
0.0
 42
-0.21111127
  0
VERTEX
  5
20B7
  8
DEFAULT_LAYER
 10
537.45194302000004
 20
190.7574546324999
 30
0.0
 42
0.38486165
  0
VERTEX
  5
20B8
  8
DEFAULT_LAYER
 10
535.06371348000005
 20
189.403037385
 30
0.0
 42
0.38486165
  0
VERTEX
  5
20B9
  8
DEFAULT_LAYER
 10
536.16981646500005
 20
186.89014578749999
 30
0.0
 42
-0.23841843
  0
VERTEX
  5
20BA
  8
DEFAULT_LAYER
 10
540.74625175999995
 20
187.16658885999999
 30
0.0
  0
VERTEX
  5
20BB
  8
DEFAULT_LAYER
 10
540.82668633749995
 20
187.1366742825
 30
0.0
  0
VERTEX
  5
20BC
  8
DEFAULT_LAYER
 10
540.90939388749985
 20
187.11393576750001
 30
0.0
  0
VERTEX
  5
20BD
  8
DEFAULT_LAYER
 10
540.99378736250003
 20
187.0963698125
 30
0.0
  0
VERTEX
  5
20BE
  8
DEFAULT_LAYER
 10
541.07927972250002
 20
187.08197291249999
 30
0.0
  0
VERTEX
  5
20BF
  8
DEFAULT_LAYER
 10
541.25121290499987
 20
187.05467228000001
 30
0.0
  0
VERTEX
  5
20C0
  8
DEFAULT_LAYER
 10
541.33647963750002
 20
187.03776153999999
 30
0.0
  0
VERTEX
  5
20C1
  8
DEFAULT_LAYER
 10
541.42049707499984
 20
187.01600585
 30
0.0
 42
-0.25333105
  0
VERTEX
  5
20C2
  8
DEFAULT_LAYER
 10
544.71987549000005
 20
183.70980226
 30
0.0
 42
-0.25333105
  0
VERTEX
  5
20C3
  8
DEFAULT_LAYER
 10
543.75496183500002
 20
179.13970050250001
 30
0.0
 42
-0.20397294
  0
VERTEX
  5
20C4
  8
DEFAULT_LAYER
 10
542.32951173749996
 20
178.81799739749999
 30
0.0
 42
-0.20397294
  0
VERTEX
  5
20C5
  8
DEFAULT_LAYER
 10
541.10950298249986
 20
179.622347765
 30
0.0
 42
0.2729992
  0
VERTEX
  5
20C6
  8
DEFAULT_LAYER
 10
539.52947370499999
 20
180.39007438249999
 30
0.0
 42
0.22072617
  0
VERTEX
  5
20C7
  8
DEFAULT_LAYER
 10
537.15888870000003
 20
179.0478450974999
 30
0.0
 42
0.22072617
  0
VERTEX
  5
20C8
  8
DEFAULT_LAYER
 10
536.65342347499995
 20
176.37095181750001
 30
0.0
 42
0.22072617
  0
VERTEX
  5
20C9
  8
DEFAULT_LAYER
 10
538.37133923500005
 20
174.2567100725
 30
0.0
 42
0.22072617
  0
VERTEX
  5
20CA
  8
DEFAULT_LAYER
 10
541.09501992499997
 20
174.20364194250001
 30
0.0
 42
-0.24116767
  0
VERTEX
  5
20CB
  8
DEFAULT_LAYER
 10
542.79380871750004
 20
175.8796080475
 30
0.0
 42
-0.24116767
  0
VERTEX
  5
20CC
  8
DEFAULT_LAYER
 10
545.14659412249989
 20
175.48067729249999
 30
0.0
 42
-0.20181239
  0
VERTEX
  5
20CD
  8
DEFAULT_LAYER
 10
547.03652797749987
 20
171.90499500999999
 30
0.0
 42
-0.20181239
  0
VERTEX
  5
20CE
  8
DEFAULT_LAYER
 10
545.80149773249991
 20
168.05375431749999
 30
0.0
 42
-0.21691112
  0
VERTEX
  5
20CF
  8
DEFAULT_LAYER
 10
544.82725069499986
 20
167.60104199
 30
0.0
 42
-0.21691112
  0
VERTEX
  5
20D0
  8
DEFAULT_LAYER
 10
543.84606830500002
 20
168.03852143
 30
0.0
 42
0.37826223
  0
VERTEX
  5
20D1
  8
DEFAULT_LAYER
 10
540.11307313500004
 20
169.60131526250001
 30
0.0
 42
0.37826223
  0
VERTEX
  5
20D2
  8
DEFAULT_LAYER
 10
538.09956933249987
 20
166.09084806499999
 30
0.0
 42
0.2213161
  0
VERTEX
  5
20D3
  8
DEFAULT_LAYER
 10
538.53405185500003
 20
165.50497942999999
 30
0.0
 42
0.2213161
  0
VERTEX
  5
20D4
  8
DEFAULT_LAYER
 10
539.26206931000002
 20
165.46017234000001
 30
0.0
 42
-0.28658074
  0
VERTEX
  5
20D5
  8
DEFAULT_LAYER
 10
544.87441913999999
 20
164.41534128999999
 30
0.0
 42
-0.2293995
  0
VERTEX
  5
20D6
  8
DEFAULT_LAYER
 10
547.50705966500004
 20
156.04567835
 30
0.0
 42
-0.24315452
  0
VERTEX
  5
20D7
  8
DEFAULT_LAYER
 10
547.04376690499987
 20
155.40123349749999
 30
0.0
 42
-0.24315452
  0
VERTEX
  5
20D8
  8
DEFAULT_LAYER
 10
546.25009069500004
 20
155.4064761475
 30
0.0
 42
0.19867312
  0
VERTEX
  5
20D9
  8
DEFAULT_LAYER
 10
540.99759813499986
 20
155.88799382249999
 30
0.0
 42
0.33760796
  0
VERTEX
  5
20DA
  8
DEFAULT_LAYER
 10
539.93057730999999
 20
152.51900810750001
 30
0.0
 42
0.33760796
  0
VERTEX
  5
20DB
  8
DEFAULT_LAYER
 10
542.89593098499995
 20
150.59669843
 30
0.0
 42
-0.27225696
  0
VERTEX
  5
20DC
  8
DEFAULT_LAYER
 10
545.09785120000004
 20
151.2919387625
 30
0.0
 42
-0.27225696
  0
VERTEX
  5
20DD
  8
DEFAULT_LAYER
 10
546.77564726499986
 20
149.70549228499999
 30
0.0
 42
-0.3017982799999999
  0
VERTEX
  5
20DE
  8
DEFAULT_LAYER
 10
547.33578495500001
 20
145.77255453000001
 30
0.0
 42
-0.24092271
  0
VERTEX
  5
20DF
  8
DEFAULT_LAYER
 10
547.10282544999995
 20
140.37199258499999
 30
0.0
 42
-0.12346152
  0
VERTEX
  5
20E0
  8
DEFAULT_LAYER
 10
543.74842808749997
 20
141.17650303249999
 30
0.0
 42
0.24160801
  0
VERTEX
  5
20E1
  8
DEFAULT_LAYER
 10
542.43540679499995
 20
141.01384533250001
 30
0.0
 42
0.24160801
  0
VERTEX
  5
20E2
  8
DEFAULT_LAYER
 10
541.80193008749995
 20
139.85229907499999
 30
0.0
 42
0.24160801
  0
VERTEX
  5
20E3
  8
DEFAULT_LAYER
 10
542.37619334999988
 20
138.66036613
 30
0.0
 42
0.24160801
  0
VERTEX
  5
20E4
  8
DEFAULT_LAYER
 10
543.67937323750004
 20
138.43188515750001
 30
0.0
 42
-0.21014577
  0
VERTEX
  5
20E5
  8
DEFAULT_LAYER
 10
545.0888424074999
 20
139.24910205500001
 30
0.0
 42
-0.21014577
  0
VERTEX
  5
20E6
  8
DEFAULT_LAYER
 10
546.64382664499988
 20
138.76281983999999
 30
0.0
 42
-0.27450104
  0
VERTEX
  5
20E7
  8
DEFAULT_LAYER
 10
547.45103251249998
 20
129.95496206249999
 30
0.0
 42
-0.31442871
  0
VERTEX
  5
20E8
  8
DEFAULT_LAYER
 10
546.65606054999989
 20
129.46666182749999
 30
0.0
 42
-0.31442871
  0
VERTEX
  5
20E9
  8
DEFAULT_LAYER
 10
545.92347900250002
 20
130.0443658275
 30
0.0
 42
0.2322462999999999
  0
VERTEX
  5
20EA
  8
DEFAULT_LAYER
 10
545.40409822250001
 20
130.60168917499999
 30
0.0
 42
0.23126311
  0
VERTEX
  5
20EB
  8
DEFAULT_LAYER
 10
543.54628760749995
 20
130.43344700750001
 30
0.0
 42
0.23126311
  0
VERTEX
  5
20EC
  8
DEFAULT_LAYER
 10
542.53743365499997
 20
128.8643774075
 30
0.0
 42
0.23126311
  0
VERTEX
  5
20ED
  8
DEFAULT_LAYER
 10
543.15540496000006
 20
127.1042986675
 30
0.0
 42
0.23126311
  0
VERTEX
  5
20EE
  8
DEFAULT_LAYER
 10
544.92371980749999
 20
126.5103050325
 30
0.0
 42
-0.266591
  0
VERTEX
  5
20EF
  8
DEFAULT_LAYER
 10
545.71939791249986
 20
126.18268409
 30
0.0
 42
-0.2711183099999999
  0
VERTEX
  5
20F0
  8
DEFAULT_LAYER
 10
546.86916164499996
 20
117.36280383
 30
0.0
 42
-0.28617962
  0
VERTEX
  5
20F1
  8
DEFAULT_LAYER
 10
545.90210769500004
 20
116.7482263875
 30
0.0
 42
-0.28617962
  0
VERTEX
  5
20F2
  8
DEFAULT_LAYER
 10
544.92454836249988
 20
117.34595251499999
 30
0.0
 42
0.25334925
  0
VERTEX
  5
20F3
  8
DEFAULT_LAYER
 10
543.3559880775
 20
117.75045268
 30
0.0
 42
0.25334925
  0
VERTEX
  5
20F4
  8
DEFAULT_LAYER
 10
542.15990445249997
 20
116.65803060250001
 30
0.0
 42
0.25334925
  0
VERTEX
  5
20F5
  8
DEFAULT_LAYER
 10
542.4209381149999
 20
115.059323795
 30
0.0
 42
0.25334925
  0
VERTEX
  5
20F6
  8
DEFAULT_LAYER
 10
543.9023774499999
 20
114.40408141499999
 30
0.0
 42
-0.26954146
  0
VERTEX
  5
20F7
  8
DEFAULT_LAYER
 10
546.75467801249988
 20
114.897240775
 30
0.0
 42
-0.26972748
  0
VERTEX
  5
20F8
  8
DEFAULT_LAYER
 10
547.26545418499995
 20
104.74536332
 30
0.0
 42
-0.34746269
  0
VERTEX
  5
20F9
  8
DEFAULT_LAYER
 10
544.78063932999987
 20
105.79010035
 30
0.0
 42
0.22405629
  0
VERTEX
  5
20FA
  8
DEFAULT_LAYER
 10
543.46298266749989
 20
105.83047958
 30
0.0
 42
0.22405629
  0
VERTEX
  5
20FB
  8
DEFAULT_LAYER
 10
542.5939626899999
 20
104.8391901425
 30
0.0
 42
0.22405629
  0
VERTEX
  5
20FC
  8
DEFAULT_LAYER
 10
542.80645626249986
 20
103.53815326749999
 30
0.0
 42
0.22405629
  0
VERTEX
  5
20FD
  8
DEFAULT_LAYER
 10
543.94571184749987
 20
102.8748679175
 30
0.0
 42
-0.26195317
  0
VERTEX
  5
20FE
  8
DEFAULT_LAYER
 10
548.01293594499998
 20
101.66199374
 30
0.0
 42
-0.2321605
  0
VERTEX
  5
20FF
  8
DEFAULT_LAYER
 10
546.4040813675
 20
93.179120354999995
 30
0.0
 42
-0.31056151
  0
VERTEX
  5
2100
  8
DEFAULT_LAYER
 10
545.25720256249986
 20
92.676476372500005
 30
0.0
 42
-0.31056151
  0
VERTEX
  5
2101
  8
DEFAULT_LAYER
 10
544.37711207500001
 20
93.567218974999989
 30
0.0
 42
0.22510363
  0
VERTEX
  5
2102
  8
DEFAULT_LAYER
 10
543.39140960249995
 20
93.703365857500003
 30
0.0
 42
0.22510363
  0
VERTEX
  5
2103
  8
DEFAULT_LAYER
 10
542.66224999250005
 20
93.026260547500002
 30
0.0
 42
0.22510363
  0
VERTEX
  5
2104
  8
DEFAULT_LAYER
 10
542.72515061499985
 20
92.033190134999984
 30
0.0
 42
0.22510363
  0
VERTEX
  5
2105
  8
DEFAULT_LAYER
 10
543.53391565000004
 20
91.453495792499993
 30
0.0
 42
-0.2124107
  0
VERTEX
  5
2106
  8
DEFAULT_LAYER
 10
544.98039795249986
 20
91.335727422500014
 30
0.0
 42
-0.2124107
  0
VERTEX
  5
2107
  8
DEFAULT_LAYER
 10
545.8614087599999
 20
90.182470855000005
 30
0.0
 42
-0.17053374
  0
VERTEX
  5
2108
  8
DEFAULT_LAYER
 10
546.14353137499995
 20
80.023957205000002
 30
0.0
 42
-0.31779085
  0
VERTEX
  5
2109
  8
DEFAULT_LAYER
 10
544.5191145325
 20
78.884508420000003
 30
0.0
 42
-0.31779085
  0
VERTEX
  5
210A
  8
DEFAULT_LAYER
 10
542.90316504999987
 20
80.035933950000015
 30
0.0
 42
0.25161656
  0
VERTEX
  5
210B
  8
DEFAULT_LAYER
 10
541.44829176250005
 20
80.173386557499995
 30
0.0
 42
0.25161656
  0
VERTEX
  5
210C
  8
DEFAULT_LAYER
 10
540.53054531500004
 20
79.036157047499984
 30
0.0
 42
0.25161656
  0
VERTEX
  5
210D
  8
DEFAULT_LAYER
 10
540.97216953500003
 20
77.643132445000006
 30
0.0
 42
0.25161656
  0
VERTEX
  5
210E
  8
DEFAULT_LAYER
 10
542.37749654250001
 20
77.242376287499994
 30
0.0
 42
-0.28889552
  0
VERTEX
  5
210F
  8
DEFAULT_LAYER
 10
543.61656692999998
 20
77.727673742500002
 30
0.0
 42
-0.28889552
  0
VERTEX
  5
2110
  8
DEFAULT_LAYER
 10
544.58873518999985
 20
76.818994810000007
 30
0.0
 42
-0.32498549
  0
VERTEX
  5
2111
  8
DEFAULT_LAYER
 10
543.09938642249995
 20
70.625811154999994
 30
0.0
 42
-0.22939224
  0
VERTEX
  5
2112
  8
DEFAULT_LAYER
 10
540.9643624025
 20
68.694482089999994
 30
0.0
 42
0.37424824
  0
VERTEX
  5
2113
  8
DEFAULT_LAYER
 10
540.06951368499995
 20
67.380470217500005
 30
0.0
 42
0.37424824
  0
VERTEX
  5
2114
  8
DEFAULT_LAYER
 10
541.24756162749986
 20
66.312956810000003
 30
0.0
 42
-0.32263773
  0
VERTEX
  5
2115
  8
DEFAULT_LAYER
 10
540.80058455499989
 20
59.946014317500001
 30
0.0
 42
0.34521689
  0
VERTEX
  5
2116
  8
DEFAULT_LAYER
 10
538.62902590999988
 20
58.501071535000001
 30
0.0
 42
0.34521689
  0
VERTEX
  5
2117
  8
DEFAULT_LAYER
 10
539.51350496500004
 20
56.047253525000002
 30
0.0
 42
-0.2463715
  0
VERTEX
  5
2118
  8
DEFAULT_LAYER
 10
537.93794414750005
 20
49.274862734999999
 30
0.0
 42
0.30448999
  0
VERTEX
  5
2119
  8
DEFAULT_LAYER
 10
536.13978859250005
 20
48.188858437500002
 30
0.0
 42
0.30448999
  0
VERTEX
  5
211A
  8
DEFAULT_LAYER
 10
536.46369282249987
 20
46.113321182500002
 30
0.0
 42
-0.2374019
  0
VERTEX
  5
211B
  8
DEFAULT_LAYER
 10
532.28969025250001
 20
39.800385922499991
 30
0.0
 42
-0.23056966
  0
VERTEX
  5
211C
  8
DEFAULT_LAYER
 10
521.10883633499998
 20
23.617875359999999
 30
0.0
 42
-0.22616947
  0
VERTEX
  5
211D
  8
DEFAULT_LAYER
 10
519.90233251500001
 20
25.825413112500001
 30
0.0
 42
-0.22616947
  0
VERTEX
  5
211E
  8
DEFAULT_LAYER
 10
520.85768274249995
 20
28.152681192500001
 30
0.0
 42
-0.36799997
  0
VERTEX
  5
211F
  8
DEFAULT_LAYER
 10
519.6111130674999
 20
29.095489712500001
 30
0.0
 42
-0.36799997
  0
VERTEX
  5
2120
  8
DEFAULT_LAYER
 10
520.34283905749987
 20
30.476576365
 30
0.0
  0
VERTEX
  5
2121
  8
DEFAULT_LAYER
 10
522.59508644749997
 20
32.427034280000001
 30
0.0
 42
-0.36246161
  0
VERTEX
  5
2122
  8
DEFAULT_LAYER
 10
520.07920611750001
 20
34.298167650000003
 30
0.0
 42
-0.36246161
  0
VERTEX
  5
2123
  8
DEFAULT_LAYER
 10
521.47007383749985
 20
37.10819983999999
 30
0.0
 42
0.27031004
  0
VERTEX
  5
2124
  8
DEFAULT_LAYER
 10
525.91952642499984
 20
40.379034349999991
 30
0.0
 42
-0.20652616
  0
VERTEX
  5
2125
  8
DEFAULT_LAYER
 10
524.05963729749999
 20
40.123222287499999
 30
0.0
 42
-0.20652616
  0
VERTEX
  5
2126
  8
DEFAULT_LAYER
 10
522.59742608249985
 20
41.3007480375
 30
0.0
 42
-0.20652616
  0
VERTEX
  5
2127
  8
DEFAULT_LAYER
 10
522.45080418999999
 20
43.172413220000003
 30
0.0
 42
-0.20652616
  0
VERTEX
  5
2128
  8
DEFAULT_LAYER
 10
523.71181431499997
 20
44.563269792499987
 30
0.0
 42
0.3726985
  0
VERTEX
  5
2129
  8
DEFAULT_LAYER
 10
527.61175544000002
 20
46.763973337499991
 30
0.0
 42
-0.33989292
  0
VERTEX
  5
212A
  8
DEFAULT_LAYER
 10
524.57417450749995
 20
47.679431902499999
 30
0.0
 42
-0.33989292
  0
VERTEX
  5
212B
  8
DEFAULT_LAYER
 10
524.67724314999998
 20
50.8502893
 30
0.0
  0
VERTEX
  5
212C
  8
DEFAULT_LAYER
 10
527.74990058000003
 20
53.827498357499998
 30
0.0
 42
0.17381335
  0
VERTEX
  5
212D
  8
DEFAULT_LAYER
 10
529.49388544999988
 20
56.078269102500002
 30
0.0
 42
-0.23805202
  0
VERTEX
  5
212E
  8
DEFAULT_LAYER
 10
527.10483190750006
 20
56.308223439999999
 30
0.0
 42
-0.23805202
  0
VERTEX
  5
212F
  8
DEFAULT_LAYER
 10
525.8707967124999
 20
58.366769392499997
 30
0.0
 42
-0.26775058
  0
VERTEX
  5
2130
  8
DEFAULT_LAYER
 10
526.62312072249995
 20
59.9218029225
 30
0.0
 42
0.12378418
  0
VERTEX
  5
2131
  8
DEFAULT_LAYER
 10
530.59131634749997
 20
64.378177252499995
 30
0.0
 42
-0.30825376
  0
VERTEX
  5
2132
  8
DEFAULT_LAYER
 10
527.83437305500001
 20
65.545172487499997
 30
0.0
 42
-0.30825376
  0
VERTEX
  5
2133
  8
DEFAULT_LAYER
 10
527.91122886999995
 20
68.537948029999995
 30
0.0
 42
0.2611345
  0
VERTEX
  5
2134
  8
DEFAULT_LAYER
 10
530.57223610000005
 20
72.965350285
 30
0.0
 42
0.40457282
  0
VERTEX
  5
2135
  8
DEFAULT_LAYER
 10
530.17128798750002
 20
73.770872787499997
 30
0.0
 42
0.40457282
  0
VERTEX
  5
2136
  8
DEFAULT_LAYER
 10
529.35296491999986
 20
73.396742797499996
 30
0.0
 42
-0.2135611
  0
VERTEX
  5
2137
  8
DEFAULT_LAYER
 10
528.56328134499995
 20
72.125370110000006
 30
0.0
 42
-0.2135611
  0
VERTEX
  5
2138
  8
DEFAULT_LAYER
 10
527.08906249250003
 20
71.867169599999997
 30
0.0
 42
-0.2135611
  0
VERTEX
  5
2139
  8
DEFAULT_LAYER
 10
525.91429276749989
 20
72.794480127499995
 30
0.0
 42
-0.2135611
  0
VERTEX
  5
213A
  8
DEFAULT_LAYER
 10
525.82308570999999
 20
74.288357629999993
 30
0.0
 42
0.12769691
  0
VERTEX
  5
213B
  8
DEFAULT_LAYER
 10
527.68642328999999
 20
77.945838617500002
 30
0.0
 42
-0.0996666
  0
VERTEX
  5
213C
  8
DEFAULT_LAYER
 10
531.74597190999987
 20
80.784952605000001
 30
0.0
 42
-0.34150317
  0
VERTEX
  5
213D
  8
DEFAULT_LAYER
 10
532.48413722249995
 20
85.884682022500002
 30
0.0
  0
VERTEX
  5
213E
  8
DEFAULT_LAYER
 10
537.63553245000003
 20
85.748598507500006
 30
0.0
 42
0.41421356
  0
VERTEX
  5
213F
  8
DEFAULT_LAYER
 10
537.81289446749986
 20
85.916830404999985
 30
0.0
  0
VERTEX
  5
2140
  8
DEFAULT_LAYER
 10
537.84370625500003
 20
87.083209042499988
 30
0.0
 42
0.41421334
  0
VERTEX
  5
2141
  8
DEFAULT_LAYER
 10
537.67547426500005
 20
87.260570642499985
 30
0.0
  0
VERTEX
  5
2142
  8
DEFAULT_LAYER
 10
532.25486600750003
 20
87.4037664775
 30
0.0
 42
-0.28278913
  0
VERTEX
  5
2143
  8
DEFAULT_LAYER
 10
530.18657268749985
 20
89.342283342499996
 30
0.0
 42
-0.28278913
  0
VERTEX
  5
2144
  8
DEFAULT_LAYER
 10
530.98248187499996
 20
92.062985374999997
 30
0.0
 42
-0.23516037
  0
VERTEX
  5
2145
  8
DEFAULT_LAYER
 10
530.11418639999988
 20
94.362170742499998
 30
0.0
 42
-0.23516037
  0
VERTEX
  5
2146
  8
DEFAULT_LAYER
 10
531.42541574500001
 20
96.440840427500021
 30
0.0
  0
VERTEX
  5
2147
  8
DEFAULT_LAYER
 10
537.39648950000003
 20
96.909886744999994
 30
0.0
 42
0.41421357
  0
VERTEX
  5
2148
  8
DEFAULT_LAYER
 10
537.55527901249991
 20
97.095749802499995
 30
0.0
  0
VERTEX
  5
2149
  8
DEFAULT_LAYER
 10
537.46390586250004
 20
98.258952195000006
 30
0.0
 42
0.4142135500000001
  0
VERTEX
  5
214A
  8
DEFAULT_LAYER
 10
537.27804227249987
 20
98.417741884999998
 30
0.0
  0
VERTEX
  5
214B
  8
DEFAULT_LAYER
 10
531.63796615499996
 20
97.974696679999994
 30
0.0
 42
-0.41235431
  0
VERTEX
  5
214C
  8
DEFAULT_LAYER
 10
529.55272224750001
 20
102.88342602
 30
0.0
 42
-0.25237974
  0
VERTEX
  5
214D
  8
DEFAULT_LAYER
 10
528.76749943749996
 20
106.2507372375
 30
0.0
 42
-0.25237974
  0
VERTEX
  5
214E
  8
DEFAULT_LAYER
 10
531.14898087250003
 20
108.7575090775
 30
0.0
  0
VERTEX
  5
214F
  8
DEFAULT_LAYER
 10
537.34349808750005
 20
109.2115079925
 30
0.0
  0
VERTEX
  5
2150
  8
DEFAULT_LAYER
 10
537.23294297999985
 20
110.7199622725
 30
0.0
  0
VERTEX
  5
2151
  8
DEFAULT_LAYER
 10
531.03842535499984
 20
110.26596376000001
 30
0.0
 42
-0.27388953
  0
VERTEX
  5
2152
  8
DEFAULT_LAYER
 10
528.19169297500002
 20
112.6447399075
 30
0.0
 42
-0.27388953
  0
VERTEX
  5
2153
  8
DEFAULT_LAYER
 10
528.90914757500002
 20
116.284480405
 30
0.0
 42
-0.2927901
  0
VERTEX
  5
2154
  8
DEFAULT_LAYER
 10
527.73456137749997
 20
118.43674301750001
 30
0.0
 42
-0.2927901
  0
VERTEX
  5
2155
  8
DEFAULT_LAYER
 10
529.19833468750005
 20
120.40378500750001
 30
0.0
  0
VERTEX
  5
2156
  8
DEFAULT_LAYER
 10
535.78035853250003
 20
121.35800326250001
 30
0.0
 42
0.41421331
  0
VERTEX
  5
2157
  8
DEFAULT_LAYER
 10
535.92662684499987
 20
121.55387238500001
 30
0.0
  0
VERTEX
  5
2158
  8
DEFAULT_LAYER
 10
535.75922418749985
 20
122.708586775
 30
0.0
 42
0.41421344
  0
VERTEX
  5
2159
  8
DEFAULT_LAYER
 10
535.56335497999999
 20
122.8548550675
 30
0.0
  0
VERTEX
  5
215A
  8
DEFAULT_LAYER
 10
528.98133143999985
 20
121.900637215
 30
0.0
 42
-0.2997846800000001
  0
VERTEX
  5
215B
  8
DEFAULT_LAYER
 10
526.55433732999995
 20
124.1152309375
 30
0.0
 42
-0.2997846800000001
  0
VERTEX
  5
215C
  8
DEFAULT_LAYER
 10
527.63113694250001
 20
127.219297055
 30
0.0
 42
-0.23834541
  0
VERTEX
  5
215D
  8
DEFAULT_LAYER
 10
527.01755278250005
 20
129.71901109500001
 30
0.0
 42
-0.23834541
  0
VERTEX
  5
215E
  8
DEFAULT_LAYER
 10
528.66628126499995
 20
131.695561185
 30
0.0
  0
VERTEX
  5
215F
  8
DEFAULT_LAYER
 10
534.95070135000003
 20
132.66836053500001
 30
0.0
 42
0.41421313
  0
VERTEX
  5
2160
  8
DEFAULT_LAYER
 10
535.09508134249995
 20
132.86562562
 30
0.0
  0
VERTEX
  5
2161
  8
DEFAULT_LAYER
 10
534.91659421999987
 20
134.01867883
 30
0.0
 42
0.41421356
  0
VERTEX
  5
2162
  8
DEFAULT_LAYER
 10
534.71932873749995
 20
134.16305887249999
 30
0.0
  0
VERTEX
  5
2163
  8
DEFAULT_LAYER
 10
528.43490917999998
 20
133.19025938249999
 30
0.0
 42
-0.28710216
  0
VERTEX
  5
2164
  8
DEFAULT_LAYER
 10
526.1365749224999
 20
134.93888024
 30
0.0
 42
-0.28710216
  0
VERTEX
  5
2165
  8
DEFAULT_LAYER
 10
526.70443532000002
 20
137.770407495
 30
0.0
 42
-0.2865925
  0
VERTEX
  5
2166
  8
DEFAULT_LAYER
 10
525.24369829999989
 20
140.13568381249999
 30
0.0
 42
-0.2865925
  0
VERTEX
  5
2167
  8
DEFAULT_LAYER
 10
526.72792176500002
 20
142.48629364999999
 30
0.0
  0
VERTEX
  5
2168
  8
DEFAULT_LAYER
 10
533.57326254500003
 20
143.5106398925
 30
0.0
 42
0.41421357
  0
VERTEX
  5
2169
  8
DEFAULT_LAYER
 10
533.71863453749995
 20
143.70717587249999
 30
0.0
  0
VERTEX
  5
216A
  8
DEFAULT_LAYER
 10
533.54595772250002
 20
144.861112975
 30
0.0
 42
0.41421326
  0
VERTEX
  5
216B
  8
DEFAULT_LAYER
 10
533.34942205000004
 20
145.0064851075
 30
0.0
  0
VERTEX
  5
216C
  8
DEFAULT_LAYER
 10
526.50408025750005
 20
143.982137475
 30
0.0
 42
-0.32480297
  0
VERTEX
  5
216D
  8
DEFAULT_LAYER
 10
523.33530828499988
 20
145.96315027
 30
0.0
 42
-0.32480297
  0
VERTEX
  5
216E
  8
DEFAULT_LAYER
 10
524.23862902250005
 20
149.58938116249999
 30
0.0
 42
-0.21850774
  0
VERTEX
  5
216F
  8
DEFAULT_LAYER
 10
523.53022615500004
 20
152.01785014999999
 30
0.0
 42
-0.21850774
  0
VERTEX
  5
2170
  8
DEFAULT_LAYER
 10
524.90950783749986
 20
154.1384346225
 30
0.0
  0
VERTEX
  5
2171
  8
DEFAULT_LAYER
 10
530.53384107249985
 20
155.196545915
 30
0.0
 42
0.4142135500000001
  0
VERTEX
  5
2172
  8
DEFAULT_LAYER
 10
530.67175859999986
 20
155.39838255750001
 30
0.0
  0
VERTEX
  5
2173
  8
DEFAULT_LAYER
 10
530.45603461500002
 20
156.54505202249999
 30
0.0
 42
0.41421356
  0
VERTEX
  5
2174
  8
DEFAULT_LAYER
 10
530.25419838749986
 20
156.68297035750001
 30
0.0
  0
VERTEX
  5
2175
  8
DEFAULT_LAYER
 10
524.62986573000001
 20
155.62485924999999
 30
0.0
 42
-0.36353799
  0
VERTEX
  5
2176
  8
DEFAULT_LAYER
 10
521.68617695750004
 20
157.85387982500001
 30
0.0
 42
-0.30906245
  0
VERTEX
  5
2177
  8
DEFAULT_LAYER
 10
522.87191585499988
 20
160.8735081225
 30
0.0
  0
SEQEND
  5
2178
  8
DEFAULT_LAYER
  0
ENDSEC
  0
EOF
